Аккорды «Home Grown»

Home Grown
Home Grown - североамериканская рок-группа, образованная в 1994 г. в Оранж Каунти, Калифорния. Они выпустили три полноформатных альбома и несколько мини-альбомов до своего распада в 2005 г. Участники: Адам Лорбах - вокал, бас-гитара (1994–2005) Джон Тран - вокал, гитара (1994–2005) Дэн Хаммонд - гитара (2002–2005) Даррен Рейнолдс - барабаны (2000–2005) Боб Херко - барабаны (1994–2000) Айан Кон - гитара, бэк-вокал (1994–1999) Джастин Пойзер - гитара, бэк-вокал (1999–2000) Home Grown - североамериканская рок-группа, образованная в 1994 г. в Оранж Каунти, Калифорния. Они выпустили три полноформатных альбома и несколько мини-альбомов до своего распада в 2005 г. Участники: Адам Лорбах - вокал, бас-гитара (1994–2005) Джон Тран - вокал, гитара (1994–2005) Дэн Хаммонд - гитара (2002–2005) Даррен Рейнолдс - барабаны (2000–2005) Боб Херко - барабаны (1994–2000) Айан Кон - гитара, бэк-вокал (1994–1999) Джастин Пойзер - гитара, бэк-вокал (1999–2000) Скрыть...
Популярные аккорды Home Grown:
алфавиту | просмотрам | случайно
  • Tuned down a half step
    
    
    BEFORE INTRO
    
    Guitar 1:
    e|---------|
    B|---------|
    G|---------|
    D|--2-2-2--|
    A|--2-2-2--|
    E|--0-0-0--|
    
    
    INTRO
    
    Guitar 1:
    e|---------------------------------------------------------------------------|
    B|---------------------------------------------------------------------------|
    G|---------------------------------------------------------------------------|
    D|--7-7-7-7-7-7-7-7-7-7-7-7-7-2-2-2-4-4-4-4-4-4-4-4-4-4-4-4-4-2-2-2----------|…
  • Intro(guitar1)
                |-------------------------------|
                |-------------------------------|
                |--6---6666---6665-----5555-----|
                |--6---6666---6665-----5555-----|
                |--4---4444---4463-----3333-----|…
  • Tuning: Half Step (eb, Bb, Gb, Db, Ab, Eb)
    
    
    Intro
    e|-------------------0-----------------------------0------------------- 
    B|------------0----4------5h7--4h5---------------0--------------------- 
    G|----------1----------------------4-----------1-----------------------…
  • Bass (intro)
    G:----------------------------------------------------------------|
    D:----------------------3-4-5-(play as a triplette)---------------|
    A:-------2---2-3---3-4--------------------------------------------|
    E:-3---3----------------------------------------------------------|
    
    
    Riff…
  • tune down 1/2 step
    
    
     intro:
    E-----------------------------------------------------------------|
    B-----------------------------------------------------------------|
    G--5-5-5-5-5-5-5-5-5-5-5-5-5-5-5-5-5-5-5-5-5-5-5-5--5-5-5-5-5-5---|
    D--5-5-5-5-5-5-5-5-5-5-5-5-5-5-5-5-5-5-5-5-4-4-4-4--5-5-5-5-5-5---|
    A--3-3-3-3-X-X-X-X-3-3-3-3-X-X-X-X-3-3-3-3-3-3-3-3----------------|
    E----------3-3-3-3---------3-3-3-3--------------------------------|…
  • intro:
    
    e--------------------------------------------------------------------|
    b--------------------------------------------------------------------|
    g--------------------------------------------------------------------|
    d-------------------3-3-3-3-3-3-3-3-3-2-2-2-2-2-2-2-2----------------|
    a--3-3-3-3-3-3-3-3-------------------------------------3-3-3-3-3-3-3-|
    e--------------------------------------------------------------------|
    
    e--------------------------------------------------------------------|
    b--------------------------------------------------------------------|
    g--------------------------------------------------------------------|
    d------------------------------3-3-3-3-3-3-3-3-5-5-5-5-5-5-5-5-------|
    a-3-----3-----3-3-3-3-3-3-3-3----------------------------------------|
    e----1---------------------------------------------------------------|
    
    e--------------------------------------------------------------------|
    b--------------------------------------------------------------------|
    g--------------------------------------------------------------------|
    d-2-2-2-2-2-2-2-2----------------------------------------------------|
    a------------------3---3---------------------------------------------|
    e--------------------1-----------------------------------------------|…
  • Tuned down half a step to: Eb Ab Db Gb Bb eb
    
    
    intro:
    e|----------------------------2----------------------------------------------|
    B|----3-----3-----3-----3-------3---3-----3-----3-----3----------------------|
    G|------4-----4-----------4-------4---------4-----4---------3-----3-----3----|
    D|------------------------------------------------------------4-----4--------|
    A|--2-----2-----2-----0-----0------------------------------------------------|
    E|--------------------------------------3-----3-----3-----2-----2-----2------|
    
    e|----------------------------2---------------------------2------------------|
    B|----3-----3-----3-----3-------3---3-----3-----3-----3---2------------------|
    G|------4-----4-----------4-------4---------4-----4-------3------------------|
    D|--------------------------------------------------------4------------------|
    A|--2-----2-----2-----0-----0-----------------------------4------------------|
    E|--------------------------------------3-----3-----3-----2------------------|
    
    
    solo…
  • intro:
    
    G|--------------------------------------------------------------------|
    D|--------------------------------------------------------------------|
    A|--let guitar go 2x then bust in with--3/10-slide-3/10-slide---------|
    E|--------------------------------------------------------------------|
    
    
    verse:
    G|-------0------------------------------------------------------------|
    D|---------3-2-0------2--------4--------------------------------------|
    A|----------------3-3---3--5-5---5------------------------------------|
    E|-3-3----------------------------------------------------------------|
    
    
    chorus:
    G|--------------------------------------------------------------------|
    D|--------------------------------------------------------------------|
    A|-3-3-3-3-3-------------3-3-3-3-3--5-5-5-5-5-5-5---------------------|
    E|-----------3-3-3--33-3----------------------------------------------|
    
    
    slow…
  • Order:
    Chorus
    Verse
    Prechorus
    Chorus
    Verse
    Prechorus
    Chorus
    Slow
    Slow 2
    Chorus
    
    
    Chorus:
    G|--------------------------------------------------------------------|
    D|-----------------------------------------------5-3------------------|
    A|-3------------------3-x…
  • intro:
    G|----------------------------------------------------------------------|
    D|----------------------------------------------------------------------|
    A|-----4--5----------4-5----------4-5-----------------4------------|
    E|-5----------0--5---------0--5---------0--4--7--5------0-0-----|
    
    
    intro…
  • GUITAR 1 INTRO (Repeat 3x)(E, B C#, D#, F#, E)(Clean, High Tone)
    E--------------------------------------------------------------------------------------------------|
    B--------------------------------------------------------------------------------------------------|
    G--------------------------------------------------------------------------------------------------|
    D--------------------------------------------------------------------------------------------------|
    A--7--2--4--6--9--7--------------------------------------------------------------------------------|
    E--------------------------------------------------------------------------------------------------|
    
    
    GUITAR…
  • Intro:
    Gb :----------------------------------------------------------------|
    Db :-------------------5-----------------------------------------5--|
    Ab :--0-1-------0-1-333-3-------0000011111-----888887777755555333-3-|
    Eb…
  • E----------------------------------------------------------------|
    B----------------------------------------------------------------|
    G--------------------------7-8----------7h8-10-8-7---------------|
    D------6-----------8---------------------------------------------|
    A----6----------10-----------------------------------------------|
    D--3----------6---------10-----------13--------------------------|
    
    
    E----------------------------------------------------------------|
    B-------------------------5-5-5-5---9-9-9-9---7-7-7-7------------|
    G-------------------8--------------------------------------------|
    D------6-----------8---------------------------------------------|
    A----6----------10-----------------------------------------------|
    D--3----------6--------------------------------------------------|
    
    
    E----------------------------------------------------------------|
    B---9-9-9-9---7-7-7-7---5-5-5-5----------------------------------|
    G----------------------------------------------------------------|
    D----------------------------------------------------------------|
    A----------------------------------------------------------------|
    D----------------------------------------------------------------|…
  • G:--------------------------------------
    D:--------------------------------------
    A:0h2--0h2--4----------0h2--0h2--4------
    E:--------------------------------------
    
    
    G:--------------------------------------
    D:----------------4-4-4-4-4-6-6-6-6-6---
    A:4-4-5-6-6-6-6-6-----------------------
    E:--------------------------------------
    
    
    G:-------------
    D:-------------
    A:4-4-5-6-6-6-6…
  • Intro 1: Mess w/ 9 on d and 11 on g hit twice and move 9 to 7 on d hit twice!! and repeat a couple times
       
       Intro 2: x3                                X1
    e|-------------------------------------]------------------------------|
    B|-------------------------------------]------------------------------|
    G|--14-------6-------14-------13-------]--14--------16----------------|
    D|--x--(x8)--x-(x4)--x--(x4)--x--(x16)-]--x--(x16)--x--(x16)----------|
    A|--12-------4-------12-------11-------]--12--------14----------------|
    E|-------------------------------------]------------------------------|…
  • 1st time:        every time after that:
    e|--------------|----------------------|
    B|--------------|----------------------|
    G|-10-11-7h8-10-|-10-11-8-10-----------|
    D|--------------|----------------------|
    A|--------------|----------------------|
    E|--------------|----------------------|
    
    
    intro/verse:
    1st…
  • Tune a half a step down
    
    
    Intro (2x)
    eb|----------------------------------------------------------------------------------|
    Bb|----------------------------------------------------------------------------------|
    Gb|--8---8-8---8-8--8-8---8/9-8---13-13--11-11--9-9--8-8---8/9-8---------------------|
    Db|----------------------------------------------------------------------------------|
    Ab|--6---6-6---6-6--6-6---6/7-6---11-11---9--9--7-7--6-6---6/7-6---------------------|
    Eb|----------------------------------------------------------------------------------|
    
    eb|----------------------------------------------------------------------------------|
    Bb|----------------------------------------------------------------------------------|
    Gb|--8---8-8---8-8--8-8---8/9-8---13-13--11-11--9-9--8-8-----------------------------|
    Db|--------------------------------------------------------6--4----------------------|
    Ab|--6---6-6---6-6--6-6---6/7-6---11-11---9--9--7-7--6-6---6--4----------------------|
    Eb|--------------------------------------------------------4--2----------------------|
    
    
    Verse…
  • intro
    G---------------------------------------------------
    D-----5555----5555----5555--7--5555
    A--5----------5----------5-----------------------   (2x)
    E---------------------------------------------------
    
    
    (intro+verse+chorus)
    G---------------------------------------------------------
    D---------------------------------------------------------
    A-----3333----3333----3333---5---3333----…
  • INTRO:
    G|---------5-7-9-545-5-7-9-7-9-11-9-11-12*-----------------------------------|
    D|---5-4-2-------------------------------------------------------------------|
    A|-3-------------------------------------------------------------------------|
    E|---------------------------------------------------------------------------|
    
    
    VERSE:
    G|---------------------------------------------|
    D|---------------------------------------------|
    A|----5>--------5>-3>-5>-777-55----5>----3>-5>-|
    E|-3>----0>-2-3-----------------3>----0>-------|
    
    
    PRE-CHORUS:
    G|---------------------------------|
    D|---------------------------------|
    A|-222-333-5>-222-333-5>-222-333-5-|
    E|---------------------------------|
    
    
    CHORUS:
    G|----------------------|
    D|----------------------|
    A|----3>----5>----3>-5>-|
    E|-0>----0>----0>-------|
    
    
    INTRO
    
    VERSE
    
    PRE-CHORUS
    
    CHORUS
    
    
    BRIDGE…
Наверх