Аккорды «Hot Water Music»

Hot Water Music
Hot Water Music Местонахождение: Гэйнсвилль, штат Флорида (США). Лэйблы: Epitaph, No Idea Records Участники: Чак Рэгэн (Chuck Ragan), Крис Уоллард (Chris Wollard), Джейсон Блэк (Jason Black), и Джордж Ребело (George Rebelo). Hot Water Music - это панк рок/пост-хардкор группа из Гэйнсвилля, Флорида. Участниками группы являются Чак Рэгэн (Chuck Ragan), Крис Уоллард (Chris Wollard), Джейсон Блэк (Jason Black), и Джордж Ребело (George Rebelo). HWM образовались в 1993. В 1996, после выхода двух… Читать полностью... Hot Water Music Местонахождение: Гэйнсвилль, штат Флорида (США). Лэйблы: Epitaph, No Idea Records Участники: Чак Рэгэн (Chuck Ragan), Крис Уоллард (Chris Wollard), Джейсон Блэк (Jason Black), и Джордж Ребело (George Rebelo). Hot Water Music - это панк рок/пост-хардкор группа из Гэйнсвилля, Флорида. Участниками группы являются Чак Рэгэн (Chuck Ragan), Крис Уоллард (Chris Wollard), Джейсон Блэк (Jason Black), и Джордж Ребело (George Rebelo). HWM образовались в 1993. В 1996, после выхода двух EP и альбома, группа ненадолго распалась, но вскоре воссоединилась в 1997 году, объявив об этом на записи концерта ‘Live at the Hardback’. Позже в 2006 году, Hot Water Music объявили о том, что настала пауза в деятельности группы. Чак Рэгэн (Chuck Ragan) уехал домой чтобы заботиться о своей семье. Однако 13 Мая 2006 года Hot Water Music объявили о том, что группа официально расформирована. Три участника группы собрали свой проект, The Draft. Их первый альбом, In a Million Pieces, вышел 12 сентября 2006 года. Так же Чак Рэгэн (Chuck Ragan) продолжает музыкальную карьеру, выпуская материал на No Idea Records. Группа воссоединилась в 2007 году, дала несколько концертов. Коллекция записей Hot Water Music на CD и виниле была издана лейблом No Idea Records под названием Till the Wheels Fall Off. Участники группы также приняли участие во многих сайд-проектах, например, The Blacktop Cadence, Cro(w)s, Unitas и Rumbleseat, а также сотрудничали со многим группами, например, Alkaline Trio, The Bouncing Souls и Against Me!. Имя группы было взято по названию книги Чарльза Буковски (Charles Bukowski). Дискография: Студийные альбомы: * Finding The Rhythms — Toybox Records / No Idea Records (1996) * Fuel For The Hate Game — Toybox Records / No Idea Records (1997) * Forever And Counting — Doghouse Records (1997) / No Idea Records переиздание (2008) * No Division — Some Records (1999) / No Idea Records переиздание (2007) * A Flight And A Crash — CD на Epitaph Records / LP на No Idea Records (2001) * Caution — CD на Epitaph Records / LP на No Idea Records (2002) * The New What Next — CD на Epitaph Records / LP на No Idea Records (2004) * Exister (Rise Records, 2012) Компиляции: * Never Ender — No Idea Records (2001) * Till the Wheels Fall Off — No Idea Records (2008) Live-альбомы: * Live at the Hardback — No Idea Records (1999) * Live in Chicago - No Idea Records (2012) EP (мини-альбомы) и сплиты: * Push For Coin (оригинальный релиз на кассете) (1995) / CD на Happy Days Records (1995) * Eating The Filler 7" — Toybox Records / Kung Fu Zombie (1995) * Split with Swivel Stick 7" — Tuesday Morning Records (1995) * Split with Tomorrow 11" — No Idea Records (1995) * You Can’t Take The Boy Out of Brandenton 7" — Schematics Records (1996) * Alachua 7" — Allied Recordings (1997) / No Idea Records переиздание (1999) * Split with Clairmel 8.5" — No Idea Records (1998) * F State Revisited 7" (сплит с Screaming Fat Rat) — Snuffy Smile (1998) * Split with Six Going On Seven 7" — Some Records (1998) * Split with Rydell 7" — Scene Police / Ignition (1998) * Moments Pass 7" — No Idea Records (1999) * Where We Belong 7" — No Idea Records (1999) * Moonpies for Misfits CD — No Idea Records (1999) (туда входят Moments Pass 7" и Where We Belong 7") * BYO Split Series, Vol. 1 LP/CD (сплит с Leatherface) — Better Youth Organization (1999) * Alkaline Trio / Hot Water Music CD/Picture Disc (сплит с Alkaline Trio) — Jade Tree Records CD / No Idea Records Picture Disc (2002) * Colors, Words, And Dreams 7" (сплит с The Casket Lottery) — Second Nature Recordings (2002) * Split with Muff Potter 7" — Green Hell Label (2003) * Live In Chicago #1 7" — No Idea Records (2010) * Live In Chicago #2 7" — No Idea Records (2010) * Live In Chicago #3 7" — No Idea Records (2010) * Live In Chicago #4 7" — No Idea Records (2010) * Сплит с The Bouncing Souls 7" — Chunksaah Records (2011) * Live In Chicago #5 7" — No Idea Records (2011) * Live in Chicago #6 6" — No Idea Records (2011) (белый винил, 1000 копий) * The Fire, The Steel, The Tread'' / ''Up to Nothing'' 7" (2011) * Drag My Body 7" - Uncle M (2012) (Picture Disc) (лимит - 500 копий) Компиляции с участием группы: * (Don't Forget To) Breathe CD (1997) * 403 Chaos Comp: Florida Fucking Hardcore (Comp) (1998) Скрыть...
Популярные аккорды Hot Water Music:
алфавиту | просмотрам | случайно
  • part-a
    |-----------------------|
    |-----------------------|
    |--9---9---6/6--7-------|
    |--7---9---4/6--7-------|
    |-----------------------|
    |-----------------------|
    
    
    part-b
    |-----------------------------------------|
    |--2--------------------------------------|
    |--2----1----------7--6—7--6--7-----------|
    |--2----2----4-----7--6—7--6--7-----------|
    |-------2----4-----5--4—5--4--5-----------|
    |------------2----------------------------|
    
    
    part-c
    |-------------------------------|
    |--------2----------------------|
    |--------2----2----4--6--7------|
    |--4-----2----2----4--6--7------|
    |--4----------1----2--4--5------|
    |--2----------------------------|
    
    
    part-d
    |-------------------|
    |-------------------|
    |---------4-2-2-----|
    |--4-4-4------------|
    |-------------------|
    |-------------------|
    
    
    part-e
    |-------------------------------|
    |--5-5-------X6-----------------|
    |-------4-2------7-7--6---------|
    |----------------7-7--6—X3------|
    |----------------5-5--4---------|
    |-------------------------------|
    
    
    part-f
    |--------------------------------------------------------------------------|
    |--------------------------------------------------------------------------|
    |---------4--2--2--------4--2-2----2----4--2-2-----2----4--2--2------------|
    |--4-4-4----------4-4-4---------4----4-----------4----4--------------------|
    |--------------------------------------------------------------------------|
    |--------------------------------------------------------------------------|
    
    
    Order:
    Part-a…
  • Tuning: E A D G B e
    
    
    Intro/Verse
    e|-------------------------|
    B|-------------------------|
    G|--666--------------------|
    D|--666-2-444-2-444-6-222--|
    A|--444-2-444-2-444-6-222--|
    E|------0-222-0-222-4-000--|
    
    
    Awesome Intro…
  • Standard Tuning E A D G
    
    
    INTRO
    
    A 7--5-----3--2-----7--5--3  PLAY 2X
    E ------3--------3---------
    
    then play several times:
    
    A 5-5----7-7----2-2----3-3-3-2
    
    
    VERSE
    
    A 7-7-7-7-5-5-5-5------------------3-3-3-2-2-2   
    E ----------------3-3-3-3-3-3-3-3-------------
    						
    A…
  • Intro and Verse 1
    
    Guitar:
    |----------------------------------------------------------|
    |--------time and keeping with drumd is easy here----------|
    |----------------------------------------------------------|
    |--5-7--5-7--5-7--5-7--5-7--5-7--5-7--5-7--5-7--5-7--5-7---|
    |----------------------------------------------------------|
    |----------------------------------------------------------|
    
    
    Bass:…
  • Standard tuning E A D G
    
    
    INTRO + VERSE
    
    G ---------------------------------------------------------------------	     
    D -----------2-----------------2---------------------------------------
    A 4 4 4 2 4-----4 2--4 4 4 2…
  • Tuning: standard
    
    
    Intro
    played twice, but the first time it ends where i put a N.
    e|---------------------------------------------------------------------------|
    B|---------------------------------------------------------------------------|
    G|9/12---11--11-9--9----9-9-9-9-8-8-9-9-9-6-6-9-9-9-9-8-8-9N9-9-6-6----------|
    D|-------x---x--x--x----x-x-x-x-x-x-x-x-x-x-x-x-x-x-x-x-x-xNx-x-x-x----------|
    A|-------9---9--7--7----7-7-7-7-6-6-7-7-7-4-4-7-7-7-7-6-6-7N7-7-4-4----------|
    E|---------------------------------------------------------------------------|
    okay…
  • Intro
    e|------------------------------------------------------------------| 
    B|5-5-5/7-7-7-7/3-3-3-3-3-5-3-5-[x3]/5-5-5/7-7-7-7/8-8-8-8/10-10-10-| 
    G|------------------------------------------------------------------| 
    D|------------------------------------------------------------------|…
Наверх