Аккорды How to Destroy Angels - The Space in Between

Добавлено: @romashka
Дата добавления: 06 Декабря 2017г.
Рейтинг:
0.0
Просмотров: 196
Транспонировать - +
Tuning: Standard

Come in at 0:33
G|--------------------------------------------------------------------------|
D|--------------------------------------------------------------------------|
A|----5(x12)-6-6-6-6-8(x12)-9-9-9-9-----------------------------------------|
E|------------------------------------------------------------------------|x4

G|----7(x12)-8-8-8-8-10(x12)-5-5-5-5----------------------|11-11-11-11------|
D|--------------------------------------------------------|-----------------|
A|--------------------------------------------------------|-----------------|
E|-------------------------------------2nd-time-end-with--|---------------|x2

^ I play the chorus here an octave up, I'm not sure if it really is though.

G|--------------------------------------------------------------------------|
D|--------------------------------------------------------------------------|
A|----5(x12)-6-6-6-6-8(x12)-9-9-9-9-----------------------------------------|
E|------------------------------------------------------------------------|x4 

G|----7(x12)-8-8-8-8-10(x12)-5-5-5-5----------------------|11-11-11-11------|
D|--------------------------------------------------------|-----------------|
A|--------------------------------------------------------|-----------------|
E|-------------------------------------2nd-time-end-with--|-----------------| 
Play until end 
Наверх