Аккорды Hozier - In A Week

Добавлено: @romashka
Дата добавления: 14 Августа 2020г.
Рейтинг:
0.0
Просмотров: 52
Транспонировать - +
Intro: G G G G | G C/g D/f# G | C G C G

I have    never known peace like the damp grass that yields to me
e-------------------------------------------------------------------------------
B-----3----3-----3----3-----3----3----3----3-----------3---3--------------------
G-------------------------------------------------------------------------------
D-----3--3---3---3--3---3---2--2---2--2--2---2----------------------------------
A------------------------------------------------------3---1--------------------
E-----------------------------------------------------------------1~~3----3-----

I have never known hunger like these insects that feast on me
e--------------------------------------------------------------------------------
B--0h1h0--3----3----3-----3----3-----3----3----3-------3-----3-------------------
G--------------------------------------------------------------------------------
D--0h2h0--3--3---3--3---3---3--2---2---2--2---2--2-------------------------------
A------------------------------------------------------3-----1-------------------
E----------------------------------------------------------------------1~~3----3-

A thousand teeth and yours among them, I know
e-----------------------------------------------------
B-----3----3-----3----3-----3----3----3----3----1---1-
G-----------------------------------------------------
D-----3--3---3---3--3---3---2--2---2--2--2---2--2---2-
A-----------------------------------------------------
E-----------------------------------------------------

Our hungers appeased,             our heart beats becoming slow 
e---------------------------------------------------------------------------------
B-----3----3-----3----3-----3----3----3----3------3---3----------------------0h10-
G---------------------------------------------------------------------------------
D-----3--3---3---3--3---3---2--2---2--2--2---2-------------------------------0h20-
A-------------------------------------------------3---1---------------------------
E--------------------------------------------------------------1~~3----3----------

      G   C/g      D/f#         G
We'll lay here for years or for hours
Cadd9             G       Cadd9            G
Thrown here or found, to freeze or to thaw
      G   C/g      D/f#         G
So long, we'd become the flowers
Cadd9             G       Cadd9            G
Two corpses we were, two corpses I saw

  G                    G
And they'd find us in a week
 G        C       G
When the weather gets hot
      G   C/g      D/f#         G
After the insects have made their claim
       C      G               C        G
I'll be home with you, I'll be home with you

I have never known sleep like this slumber that creeps to me
e-------------------------------------------------------------------------------
B-----3----3-----3----3-----3----3----3----3-----------3---3--------------------
G-------------------------------------------------------------------------------
D-----3--3---3---3--3---3---2--2---2--2--2---2----------------------------------
A------------------------------------------------------3---1--------------------
E-----------------------------------------------------------------1~~3----3-----

I have never known colors like this morning reveals to me
e--------------------------------------------------------------------------------
B--0h1h0--3----3----3-----3----3-----3----3----3-------3-----3-------------------
G--------------------------------------------------------------------------------
D--0h2h0--3--3---3--3---3---3--2---2---2--2---2--2-------------------------------
A------------------------------------------------------3-----1-------------------
E----------------------------------------------------------------------1~~3----3-

And you haven't moved an inch such that I would not know
e--------------------------------------------------------------------------------
B--0h1h0--3----3----3-----3----3-----3----3----3-------3-----3-------------------
G--------------------------------------------------------------------------------
D--0h2h0--3--3---3--3---3---3--2---2---2--2---2--2-------------------------------
A------------------------------------------------------3-----1-------------------
E----------------------------------------------------------------------1~~3----3-

If you sleep always like this, flesh calmly going cold
e--------------------------------------------------------------------------------
B--0h1h0--3----3----3-----3----3-----3----3----3-------3-----3-------------------
G--------------------------------------------------------------------------------
D--0h2h0--3--3---3--3---3---3--2---2---2--2---2--2-------------------------------
A------------------------------------------------------3-----1-------------------
E----------------------------------------------------------------------1~~3----3-

      G   C/g      D/f#         G
We'll lay here for years or for hours
Cadd9             G       Cadd9            G
Your hand in my hand, so still and discreet
      G   C/g      D/f#         G
So long, we'd become the flowers
Cadd9             G       Cadd9            G
We'd feed well the land and worry the sheep

    G                  G
And they'd find us in a week
G         C            G
When the cattle'd show fear
      G   C/g      D/f#         G
After the insects have made their claim
      G   C/g      D/f#         G
After the foxes have known our taste
       C         G           C       G
I'll be home with you, I'll be home with you

    G                  G
And they'd find us in a week
G         C           G
When the weather gets hot
  G                     G 
And they'd find us in a week
  G        C           G
When the cattle'd show fear

  G
And they'd find us in a week
When the buzzards get loud
After the insects have made their claim
After the foxes have known our taste
After the raven has had his say
        C        G           C        G
I'll be home with you, I'll be home with you
        C        G           C        G
I'll be home with you, I'll be home with you
        C        G           C        G
I'll be home with you, I'll be home with you


Outro:
e-------------------0---2---3-----7---2--3--2--0----
B-----3---3--3------------------------------------3-
G---------------------------------0---2--4--2-------
D---------------------------------------------------
A---------------------------------------------------
E-----3---3--3------3---3---3---------------------3-

Cadd9 can be played as normal C, but if played it's like this:
e-------
B---3---
G---0---
D---2---
A---3---
E-------
Наверх