Аккорды I AM KLOOT - Avenue Of Hope

Добавлено: @romashka
Дата добавления: 27 Мая 2022г.
Рейтинг:
0.0
Просмотров: 30
Транспонировать - +
Интро:
 
e -------0--------------|
B -------1--------1-----|
G ----------------2-----|    Играть два раза
D ----------------------|
A ----0--------0--------|
E --3--------3----------|
 
 
e ------------0-0---------------0-0------------1-1------------1-1--|
B ------------1-1---------------1-1------------3-3------------3-3--|
G ------------2-2---------------2-2------------2-2------------2-2--|
D ------------2-2---------------2-2---------0--0-0---------0--0-0--|
A --------0---0-0-----------0---0-0---0-3-0----0-0---0-3-0----0-0--|
E --0-3-0-----0-0----0-3-0------0-0------------0-0------------0-0--|
 
e ------------0-0---------------0-0------------0-0------------0-0--|
B ------------1-1---------------0-0------------1-1------------1-1--|
G ------------2-2---------------1-1------------2-2------------2-2--|
D ------------2-2---------------0-0------------2-2------------2-2--|
A --------0---0-0---------------2-2-------2-0--0-0---------0--0-0--|
E --0-3-0-----0-0----0-3-0--0---0-0---0-3------0-0----0-3-0---0-0--|
 
[Куплет]:
 
e ------------0-0---------------0-0------------1-1------------1-1--|
B ------------1-1---------------1-1------------3-3------------3-3--|
G ------------2-2---------------2-2------------2-2------------2-2--|
D ------------2-2---------------2-2---------0--0-0---------0--0-0--|
A --------0---0-0-----------0---0-0---0-3-0----0-0---0-3-0----0-0--|
E --0-3-0-----0-0----0-3-0------0-0------------0-0------------0-0--|
 

   Am
Along the avenue of hope
                  Dm7
The footsteps falter, the fingers grope
      Am           Em7              Am    Am
and days, stretch out, beneath the sun
   Am                                    Dm7
No-one's born, and no-one dies, no-one loves, so no-one cries
        Am                E            Am      E
and we wait to see just what we will become
 
[Проигрыш]:
 
e ---8----8----8--------|
B -----10--10-----------|
G --9----9----9---------| five times
D ----------------------|
A ----------------------|
E ----------------------|
Don't let me falter, don't let me ride
Don't let the earth in me subside
          
Let me see just who I will become
 

 
e ------------0-0---------------0-0------------1-1------------1-1--|
B ------------1-1---------------1-1------------3-3------------3-3--|
G ------------2-2---------------2-2------------2-2------------2-2--|
D ------------2-2---------------2-2---------0--0-0---------0--0-0--|
A --------0---0-0-----------0---0-0---0-3-0----0-0---0-3-0----0-0--|
E --0-3-0-----0-0----0-3-0------0-0------------0-0------------0-0--|
 
e ------------0-0---------------0-0------------0-0------------0-0--|
B ------------1-1---------------0-0------------1-1------------1-1--|
G ------------2-2---------------1-1------------2-2------------2-2--|
D ------------2-2---------------0-0------------2-2------------2-2--|
A --------0---0-0---------------2-2-------2-0--0-0---------0--0-0--|
E --0-3-0-----0-0----0-3-0--0---0-0---0-3------0-0----0-3-0---0-0--|
 
[Куплет 2]:
 
You're like the clouds in my home town
You just grow fat & hang around
& your days stretch out beneath the sun
& no-one's born, & no-one dies, no-one loves, so no-one cries
& we wait to see just, what we will become
 
[Проигрыш]:
 
Don't let me borrow, don't let me bring
Don't let me wallow, don't make me sing
Let me see just, who I will become
 
Don't let me falter, don't let me ride
Don't let the earth in me subside
Let me see what I, will become
Don't let them borrow, don't let them bring
Don't let them wallow, don't make them sing
Let them stretch out beneath the sun 
Наверх