Аккорды ifwe - На парусах

Добавлено: @romashka
Дата добавления: 09 Августа 2022г.
Рейтинг:
0.0
Просмотров: 44
Транспонировать - +
[Каподастр на 4-ом ладу]

[Мотив]
[Играется на протяжении всей песни, кроме припева]

e-----13-13---8--8--8--8----8------|
b----11----------------------------|
g---13-------8------------8--------| (4 раза)    

e-----6-6-----8--8--8--8----8-----13-13---8--8--8--8----8--|
b----6-------6-------------------11------------------------|
g---8-------6------------6------13------8-------------8----| (2 раза)

[Соло 1]+ [Проигрыш]
    Emaj7           Amaj7               Emaj7            Amaj7 
e-----------|----------------|------------------|-------------------8|
b-----8-----|6---------8-----|-------------8----|6------------8------|
g-----------|----------------|-8----------------|--------------------|
d---8-----8-|----8--8------8-|----------8----8--|-------8—-8------8--|


[Соло 2]+[Проигрыш]
           Emaj7           Amaj7            Emaj7
d------------5----------|-------5-|--------------—--------|
a------6--8-----8--6--6-|-8--8----|-8---------6-----------|
e---8-------------------|---------|--------8--------------| (2 раза)




[Проигрыш]: Emaj7 Amaj7 (4 раза)
[Соло 1]+ [Проигрыш]

Emaj7
Глупости юных сердец
Amaj7    Emaj7        Amaj7    
Красавиц и их друзей
Emaj7
Хватит спасти весь мир
Amaj7    Emaj7           B
От тех кто ходит в музей

Amaj7
В юных сердцах весна
B      Emaj7          B
Прочих она не коснется
Amaj7
Когда опустеет весь город
B            Emaj7          
Любовь в них мгновенно зажгётся 

[Припев]:
       C#m               B    
       Спасаться и дрейфовать
                 A       B
       В море на парусах
       C#m                  B
       И ждать когда это случится
                 A  
       В наших неюных сердцах


[Проигрыш]:
  B      A      B     Amaj7
Ааа   Аааааа  Аааааа  Аааааа (2 раза)

[Соло 2]+[Проигрыш]

Emaj7
Юных сердец никогда
Amaj7    Emaj7        Amaj7
Будущее не коснется
Emaj7
Беспечность одна в их сердцах
Amaj7    Emaj7         B
Она навсегда остается

Amaj7 
Парус спокоен весь день
B      Emaj7          B
Ветер его не коснется
Amaj7 
Я жду когда наконец
B      Emaj7          B
Лодка моя вернется

[Припев]:
       C#m               B    
       Спасаться и дрейфовать
                 A       B
       В море на парусах
       C#m                  B
       И ждать когда это случится
                 A  
       В наших неюных сердцах

[Проигрыш]: Emaj7 Amaj7 (3 раза) 
Наверх