Аккорды Илья Орлов - В прошлом и будущем

Добавлено: @romashka
Дата добавления: 03 Сентября 2018г.
Рейтинг:
0.0
Просмотров: 18
Транспонировать - +
Вступление
E||-----------------------|-----------------12----|
B||--8---7---5------3--1--|--0-------0------12----|
G||--0---0---0------0--0--|--0---2---0------12----|
D||--9---7---5------4--2--|--0---0---2------------|
A||--7---5---3------2--0--|--2--------------------|
E||-----------------------|--3---2---0------------|

E||-----------------------|---------------------|-----------------------|
B||--8---7---5------3--1--|--0------3-----------|--8---7---5------3--1--|
G||--0---0---0------0--0--|--0------2-----------|--0---0---0------0--0--|
D||--9---7---5------4--2--|--0------0-----------|--9---7---5------4--2--|
A||--7---5---3------2--0--|--2------------------|--7---5---3------2--0--|
E||-----------------------|--3------2-----------|-----------------------|

E||-----------------12----|-----------------------|-----------------12----|
B||--0-------0------12----|--8---7---5------3--1--|--0-------0------12----|
G||--0---2---0------12----|--0---0---0------0--0--|--0---2---0------12----|
D||--0---0---2------------|--9---7---5------4--2--|--0---0---2------------|
A||--2--------------------|--7---5---3------2--0--|--2--------------------|
E||--3---2---0------------|-----------------------|--3---2---0------------|

Куплет
E||-----------------------|-----------------12----|
B||--8---7---5------3--1--|--0-------0------12----|
G||--0---0---0------0--0--|--0---2---0------12----|
D||--9---7---5------4--2--|--0---0---2------------|
A||--7---5---3------2--0--|--2--------------------|
E||-----------------------|--3---2---0------------|

E||-----------------------|---------------------||
B||--8---7---5------3--1--|--0------3-----------||
G||--0---0---0------0--0--|--0------2-----------||
D||--9---7---5------4--2--|--0------0-----------||
A||--7---5---3------2--0--|--2------------------||
E||-----------------------|--3------2-----------||

Я живу в ожидании,
нужных слов, настроения

E||-----------------------|----------------------|
B||--8---7---5------3--1--|--0-------0-----------|
G||--0---0---0------0--0--|--0---2---0-----------|
D||--9---7---5------4--2--|--0---0---2-----------|
A||--7---5---3------2--0--|--2-------------------|
E||-----------------------|--3---2---0-----------|

  C      G           D      B7      
E||--0------3--------|--2------2--------||
B||--1------0--------|--3------4--------||
G||--0------0--------|--2------2--------||
D||--2------0--------|--0------4--------||
A||--3------2--------|---------2--------||
E||---------3--------|------------------||

Выражая желание 
Терпением       

Оставляя ненужное,
Пропуская не главное,
Верю, в прошлом и будущем
Всё равное      

Припев
               Am C D
               Вещи покупаем от скуки
               G Em
               И завтра не глядя отправляем их в хлам
               Am C D
               Всё что мы узнаем сегодня
               Em 
               Останется нам

Старые фотографии,
Чёрно-белые повести,
Краткая биография
На совести      

Начиная вступление,
Погружаюсь в сомнения,
Пролетая во времени мгновения

               Вещи покупаем от скуки
               И завтра не глядя отправляем их в хлам
               Всё, что мы умеем сегодня,
               Останется нам.
comments powered by Disqus
Наверх