Аккорды Илья Орлов - Сейчас

Добавлено: @romashka
Дата добавления: 03 Сентября 2018г.
Рейтинг:
0.0
Просмотров: 18
Транспонировать - +
// Вступление

E||--------------------------|--------------------------|
B||--------------------------|--------------------------|
G||--------------------------|--------------------------|
D||--------------------------|--------------------------|
A||--3--3--3--2--2--2--3--3--|--3--3--3--2--2--2--3--3--|
E||--1--1--1--1--1--1--1--1--|--3--3--3--3--3--3--3--3--|

|--------------------------|--------------------------|
|--------------------------|--------------------------|
|--------------------------|--------------------------|
|--------------------------|--5--5--5--3--3--3--2--2--|
|--3--3--3--2--2--2--3--3--|--3--3--3--3--3--3--3--3--|
|--5--5--5--5--5--5--5--5--|--------------------------|

|--------------------------|--------------------------|
|--------------------------|--------------------------|
|--------------------------|--------------------------|
|--------------------------|--------------------------|
|--3--3--3--2--2--2--3--3--|--3--3--3--2--2--2--3--3--|
|--1--1--1--1--1--1--1--1--|--3--3--3--3--3--3--3--3--|


|--------------------------|--------------------------||
|--------------------------|--------------------------||
|--------------------------|-------------------------||
|--5--5--5--3--3--3--2--2--|-------------------------||
|--3--3--3--3--3--3--3--3--|--3--3--3--2--2--2--------||
|--------------------------|--5--5--5--3--3--3--0-----||


|--------------------------|--------------------------|
|--------------------------|--------------------------|
|--------------------------|--------------------------|
|--------------------------|--------------------------|
|--3--3--3--3--3--2--3--3--|--3--3--3--3--3--3--3--2--|
|--1--1--1--1--1--1--1--1--|--1--1--1--1--1--1--1--1--|


|--------------------------|--------------------------|
|--------------------------|--------------------------|
|--------------------------|--------------------------|
|--------------------------|--------------------------|
|--3--3--3--3--3--2--3--3--|--3--3--3--3--3--3--3--3--|
|--1--1--1--1--1--1--1--1--|--1--1--1--1--1--1--1--1--|

// В куплете аккорды такие (повторяются по кругу):

C F
Am G F

// в припеве

F G Am C
F G C Am
F G Am C
F G C Am
F
comments powered by Disqus
Наверх