Аккорды «In Flames»

In Flames
История шведской melodic death metal-команды In Flames берет свое начало в 1990 году в городе Гётеборг, Швеция, когда участники Ceremonial Oath в лице Йеспера Стрёмблада (Jesper Strömblad), Йоханна Ларссона (Johann Larsson) и Гленна Юнгстрёма (Glenn Ljungström), приняли решение покинуть группу с целью создания новой, ныне известной как In Flames. Записав несколько демо-треков, музыканты разослали их по рекорд-лейблам и уже вскоре имели на руках контракт с Wrong Again Records, посредством которого… Читать полностью... История шведской melodic death metal-команды In Flames берет свое начало в 1990 году в городе Гётеборг, Швеция, когда участники Ceremonial Oath в лице Йеспера Стрёмблада (Jesper Strömblad), Йоханна Ларссона (Johann Larsson) и Гленна Юнгстрёма (Glenn Ljungström), приняли решение покинуть группу с целью создания новой, ныне известной как In Flames. Записав несколько демо-треков, музыканты разослали их по рекорд-лейблам и уже вскоре имели на руках контракт с Wrong Again Records, посредством которого выпустили дебютный лонгплей Lunar Strain. Запись пластинки проходила при участии вокалиста Микаэля Станне (Mikael Stanne), который вскоре после ее записи перешел в ряды конкурентов Dark Tranquillity. Альбом Lunar Strain имел весомый успех на шведской метал-сцене, о чем свидетельствовали позитивные отзывы музыкальных критиков и специализированной прессы. В 1995 году группа In Flames записала и выпустила мини-альбом Subterranean, записанный с вокалистом Хенке Форссом (Henke Forss), которого впоследствии сменил Андерс Фриден (Anders Fridén), ранее трудившийся в рядах все тех же Dark Tranquillity. Данная пластинка привлекла к себе внимание авторитетного метал-лейбла Nuclear Blast, с которым музыканты и заключили контракт в тот же год. Вслед за этим In Flames отправились в тур с легендами thrash metal-сцены Kreator. В 1997 году команда выпускает очередной лонгплей Whoracle. Спустя некоторое время после записи Йоханн Ларссон и Гленн Юнгстрём принимают решение покинуть состав в пользу иных музыкальных проектов. В поддержку альбома Whoracle групп совершает тур с symphonic black metal-монстрами Dimmu Borgir, при участии басиста Питера Иверса (Peter Iwers) и гитариста Никласа Энгелина (Niklas Engelin), которые по завершении тура становятся полноправными участниками In Flames. Спустя некоторое время в обновленном составе группа совершает очередной тур по Европе и дает свой первый концерт за ее пределами – в Японии. По его завершении в рядах In Flames происходят очередные перестановки. Состав покидает гитарист Никлас Энгелин (Niklas Engelin), его место занимает барабанщик Bjorn Gelotte, а новым ударником становится Дэниэль Свенссон (Daniel Svensson, Sacrilige). В данном составе команда записывает очередную пластинку Colony. 2000 год ознаменовался для группы In Flames выпуском альбома Clayman. К данному моменту за плечами музыкантов уже были совместные выступления с грандами метал-сцены Dream Theater, Slipknot и Testament. Тем временем, в связи с рождением своей первой дочери басист Петер Иверс был вынужден временно покинуть In Flames, а на время его отсутствия был принят Дик Лоугрен (Dick Lowgren). Петер Иверс возобновил исполнение своих обязанностей в рядах In Flames, когда у группы уже была закончена запись первого концертного альбома The Tokyo Showdown в 2001 году. В следующем году команда In Flames выпускает очередной и весьма спорный альбом Reroute To Remain, который повлек за собой критику со стороны старых фэнов и признание новыми. Альбом имел ярко выраженное влияние американской альтернативной сцены вкупе с большим использованием чистого вокала и электронных инструментов. Reroute To Remain задал тон целому музыкальному течению в современной экстремальной музыке, ныне мегапопулярному metalcore. В 2004 году группа In Flames представила очередной лонгплей Soundtrack To Your Escape, ставший продолжением развития идей Reroute To Remain. В сентябре следующего года выходит DVD-бокссет Used And Abused: In Live We Trust. В течение года музыканты продолжили активную концертную деятельность, в рамках которой In Flames засветились на главной сцене фестиваля Ozzfest наряду с Black Sabbath, Iron Maiden, Mudvayne, Shadows Fall, Black Label Society, Velvet Revolver, Slipknot и Drowning Pool. Осенью команда приняла участие в юбилейном туре легендарных Motorhead. В феврале 2010 года группу покинул основатель, гитарист Йеспер Стрёмблад. С 2009 года он лечится от алкоголизма в реабилитационной клинике. Кроме того, Фриден сказал, что его отношения со Стрёмблад были не из лучших в последнее время. 28 февраля 2011 года группа сообщила, что на место второго гитариста был взят Никлас Энгелин из Engel, который уже несколько лет ездил с ними в турне, заменяя Стрёмблада. В начале 2010 года In Flames сотрудничают с австралийцами Pendulum во время работы над их третьим полноформатным альбомом Immersion. В октябре этого же года коллектив отправился в IF Studios в Гетеборге, чтобы начать запись своего нового альбома, который получил название Sounds of a Playground Fading. В январе 2011 года группа сообщает, что завершила запись и отправила материал на сведение, а в июне состоялся и сам релиз. В поддержку нового опуса In Flames выступают на Sonisphere Festival и Mayhem Festival 2011, где также принимали участие Megadeth, Trivium, Machine Head, Godsmack и Disturbed. Далее музыканты появляются на Hellfest Festival 2011 и на австрийском Nova Rock Festival. В марте этого же года команда подписывает контракт с Century Media Records, а 6 апреля был анонсирован выход майского сингла Deliver Us. На этот трек и на Where the Dead Ships Dwell, Ropes и Sounds of a Playground Fading были сняты видеоклипы. Клип Ropes был составлен из фанатских видео на эту песню, которые группа просила им присылать. На время проведения европейского турне Йонас Экдал заменяет на время ударника Свенссона, поскольку последний решил остаться в Швеции из-за рождения ребёнка. На 2012 год группа запланировала большое турне по Швеции, Норвегии и Финляндии, а также выступление на Greenfields Festival, Greenfield Festival, Wacken Open Air Festival и др. Скрыть...
Популярные аккорды In Flames:
алфавиту | просмотрам | случайно
  • Tuning: C (C,F,A#,D#,G,C)
    
    
    Riff A1
    |---------------------~~------------------|  
    |----------------/12--10-------h--p-------|  
    |-------11--9-------------12-11-12-11-----|  
    |-----9-------------------------------14--|  
    |---7-------------------------------------|…
  • .  - palm mute          /  - slide up to
       - slide down to      ~  - vibrato
     h  - hammer on          b  - bend
     p  - pull off            Suffixes for bend
                              ph - pinch harmonic…
  • Intro x2
    |---|:--------------------------------------:|
    |---|:--------------------------------------:|
    |2~3|:2(as many times needed--0-0-0-0-0-0-3~:| 
    |---|:--------------------------------------:|
    
    Verse x1
    |-----------------------------------------------------------|
    |-----------------------------------------------------------|
    |--------------------------2--------------------------------|
    |2-2----2-2-2----2-2----2-2-----2-2----2-2-2----2-2----2-2-0|
    
    |---------------------------------------------------------------|
    |---------------------------------------------------------------|
    |-----------------------------2---------------------------------|
    |2-2-2----2-2-2----2-2-2---2-2-----2-2-2----2-2-2----2-2-2---2-0|
    
    Pre-Chorus…
  • ..  - palm mute          /  - slide up to
       - slide down to      ~  - vibrato
     h  - hammer on          b  - bend
     p  - pull off            Suffixes for bend
                              ph - pinch harmonic…
  • .  - palm mute                          /  - slide up to
      - slide down to                      ~  - vibrato
    "  - tremelo picking                    () - ghost note
    p  - pull off                           h  - hammer-on…
  • This is a set of four guitars.
    
    C  :------------------|-----------------|------------------|
    G  :------------------|-----------------|------------------|
    Eb :------------------|-------9---------|-------9--------7-|
    Bb :10--9--10---9-----|-----9-----------|10---------10-----|
    F…
  • .  - palm mute          /  - slide up to
       - slide down to      ~  - vibrato
     h  - hammer on          b  - bend
     p  - pull off            Suffixes for bend
                              ph - pinch harmonic…
  • Intro:
    
    Guitar I
    2x
    [-----------------------------------------------------------]
      PM....         PM.....         PM...           PM.
    -------------------------------------------------------------
    --9---9--7---7---10---10-9---9---7---7-9----9----7-7--5---5--
    --11--11-9---9---12---12-11--11--5---5-11---11---5-5--3---3--
    -------------------------------------------------------------
    -------------------------------------------------------------
    -------------------------------------------------------------
    -------------------------------------------------------------
    
    Repeat…
  • C Tuning
    
    Riff A.1       h p               h p       
    |-----------7-5-7-5-----------7-5-7-5---|
    |-5--5--------------8---8-7-------------|
    |------4--------------5-----7-----------|Gtr I
    |---------------------------------------|
    |---------------------------------------|
    |---------------------------------------|
    |…
  • . - palm mute
    , - light palm mute
    / - slide 
          
    Tuning - C G D# A# F A#
                
                
     Intro
    |------------------------------|
    |------------------------------|
    |------------------------------|
    |------------------------------|
    |------------------------10----|
    |-3--0-0--3--0-0--3--0-0--8----|
    |-3--0-0--3--0-0--3--0-0--8----|x4…
  • Capo 1
    
    Intro: A
    
                              Em
    False affection took the best of me
    Deep inside, the absent mind
    Denial and hypocrisy
    All this the same
    To do this we part our ways
    
             Em         Am…
  • standard tuning
    
    riff 1
    g----------------------------------------------
    d----------------------------------------------
    a--------------------------4-3-2---------------
    e--1--1--3/4----1--1--3/4--------44-33-11-33---
    it sounds…
  • ..  - palm mute          /  - slide up to
       - slide down to      ~  - vibrato
     h  - hammer on          b  - bend
     p  - pull off            Suffixes for bend
                              ph - pinch harmonic…
  • Dropped A tuning: A#-F-A#-D#-G-C
    
    (v) Vibrato
    \ slide
    X: palm mute
    
    
    Intro:
    
        x x x x              x x x x
    ----------------------------------------------------------|
    ----------------------------------------------------------|
    ----------------------------------------------------------|
    ----------------------------------------------------------|
    ------------0--------------------0-3\6-5(v)---------------|
    -8/-0-0-0-0-0-3\6-5(v)---0-0-0-0-0------------------------|…
  • Intro
    
    Guitar 1 riff 1
    -|-------------------------|
    -|-------------------------|
    -|-------------------------|
    -|-6-6-6-6-8-6-5-5-5-5-3-5-|(played 8x)
    -|--8-8-8-8-8---6-6-6-6-6--|
    -|-------------------------|
    Guitar…
  • ..  - palm mute          /  - slide up to
       - slide down to      ~  - vibrato
     h  - hammer on          b  - bend
     p  - pull off            Suffixes for bend
                              ph - pinch harmonic…
  • ..  - palm mute          /  - slide up to
       - slide down to      ~  - vibrato
     h  - hammer on          b  - bend
     p  - pull off            Suffixes for bend
                              ph - pinch harmonic…
  • Drop C Tuning:
    
    
    (0:04)
    |--------|-------------|
    |-GUITAR-|-------------|
    |-(REST)-|-3-3-5-5-5-7-|
    |--------|-------------|
    		     .
    
    Verse (0:06)
    |---------------------------------------|
    |---------------------------------------|
    |--2--3--7----77-5----55--3-3-5-5-5-7---|
    |----------00------00-------------------|…
  • Eb :----|------------------|----------------|-------------------|
    Bb :----|------------------|----------------|-------------------|
    F  :----|------------------|----------------|-------------------|
    Bb :7---|10-12-------------|----------------|(12)---------------|
    
    Eb…
  • / - slide up to        - slide down to
    h - hammer on         p - pull off
    ^ - bend
    
    
    Intro:
    -------------------------------------------------------------|
    -------------------------------------------------------------|
    -0----------0-----12---7-7-7-5-5-8-8--7-7-7-8-8-5-5--------|
    -------------------------------------------------------------|
    
    -------------------------------------------------------------|
    -------------------------------------------------------------|
    -0---------0-0----12---7-7-7-5-5-8-8--7-7-7-8-8-5-5--------|
    -------------------------------------------------------------|
    
    Verse…
  • Part 1:   Play twice
    E|---------------------------------------------------------------------------
    B|--10--10---11-10/1110--8-8------------------------------------------------
    G|--------------------------------10-10--7-----10-10---9-9-----6---9---7/97-
    D|----------------------------------------------------------7----------------
    A|---------------------------------------------------------------------------
    e|---------------------------------------------------------------------------
    
    E|------------------|
    B|------------------|
    G|--6--7--9--10--12-|
    D|------------------|
    A|------------------|
    e|------------------|
    
    E|--------------------------------------------------------------------------|
    B|--10--10---11-10/1110--8-8-----------------------------------------------|
    G|--------------------------------10-10--7-----10-10---9-9-----6---9--7-7---|
    D|----------------------------------------------------------7---------------|
    A|--------------------------------------------------------------------------|
    e|--------------------------------------------------------------------------|
    
    -…
  • E------------------------5----3----------/
    A----5----1----3----5----7----5----1-----/
    D----7----3----5----7----7----5----3-----/
    G----7----3----5----7--------------3-----/
    B----------------------------------------/
    e----------------------------------------/
    
    
    E------------------------------------/
    A----5---------5------1---------1----/
    D------7----7------------3----3------/
    G--------7------------------3--------/
    B------------------------------------/
    e------------------------------------/…
  • |-------------------------------------------------|
    |------7-5-3-7-5-3-3-3-3-3-3-3-7-5-3--------------|
    |-------------------------------------------------|
    |-------------------------------------------------|
    |-------------------------------------------------|
    
    |-------------------------------------------------|
    |------7-5-3-7-5-3-3-3-3-3-3-3-7-5-3--------------|
    |-------------------------------------------------|
    |-------------------------------------------------|
    |-------------------------------------------------|
    
    |-------------------------------------------------|
    |------7-5-3-7-5-3-3-3-3-3-3-3-7-5-3--------------|
    |-------------------------------------------------|
    |-------------------------------------------------|
    |-------------------------------------------------|
    
    |-------------------------------------------------|
    |------7-5-3-7-5-3-3-3-3-3-3-3-7-5-3--------------|
    |-------------------------------------------------|
    |-------------------------------------------------|
    |-------------------------------------------------|
    
    |-------------------------------------------------|
    |------7-5-3-7-5-3-3-3-3-3-3-3-7-5-3--------------|
    |-------------------------------------------------|
    |-------------------------------------------------|
    |-------------------------------------------------|
    
    |-------------------------------------------------|
    |------7-5-3-7-5-3-3-3-3-3-3-3-7-5-3--------------|
    |-------------------------------------------------|
    |-------------------------------------------------|
    |-------------------------------------------------|…
  • Tune to D
     
    Left Guitar:
    
    E------------------5----------6---------6----|
    B-------8---------------------8-------8-8-8--|
    G-----7---7------7---7------7---7-----7---7--|
    D--0----------4----------5---------5---------|
    A--------------------------------------------|
    E--------------------------------------------|
    
    
    E------------------5----------5---------6----|
    B-------8-------------------------------8-8--|
    G-----7---7------7---7------7---7-----7------|…
  • Legend:
    The little thing in () is only played once.
    ~ = let ring
    
    Intro Gtr.1
     C|-------------------------------------------------------|
     G|-------------------------------------------------------|
    Eb|-------------------------------------------------------|
    Bb|-12----8----3----10----5----5--------------------------|…
  • TUNING: D tuning
    
     Intro
    |------------------------------------|
    |------------------------------------|
    |------------------------------------| GTR I
    |---2-5-4-------4/7-9-10-9-----------|
    |---------5-2-5------------10-9-7-5--|
    |-0----------------------------------|
    |
    |------------------------------------|
    |------------------------------------|
    |-----------------2-4-5--4-----------|…
  • ..  - palm mute          /  - slide up to
       - slide down to      ~  - vibrato
     h  - hammer on          b  - bend
     p  - pull off            Suffixes for bend
                              ph - pinch harmonic…
  • E-----------------------|
    B5--6-------------------|
    G|--------5------------8b---7----5--|
    D||----------2-----7----------------------------|
    A||--0----0--0--0-------------------------------|
    E-----------------------|…
  • Tuning: 1/2 step down Dropped D (DADGBE)
    
    
    Legend:
    
      x   Mute notes
    
    
    e -----------------------------------------------
    B -----------------------------------------------
    G -----------------------------------------------
    D…
  • C ||---------------------------------------|----------------------------------|
    G ||---------------------------------------|----------------------------------|
    D#||*--10---9h-10p-9---------------------9-|--10---9---12---10---9-10-9-------|
    A#||*-----------------12---10------10-12---|----------------------------12-10-|
    F…
  • Guitar
    
    
    
                 PM    PM PM  PM           PM     PM                 
          E   E  E  E  E  E   E  E      E  E   E  E   E   E   E  E   
    C ||----------------------------|--10---------------------------|
    G ||-----10-----8------------8--|---------10--------------------|
    D#||--7------7-----7--9--10-----|------7------7--10p--9------7--|
    A#||----------------------------|------------------------10-----|
    F…
  • ..  - palm mute          /  - slide up to
       - slide down to      ~  - vibrato
     h  - hammer on          b  - bend
     p  - pull off            Suffixes for bend
                              ph - pinch harmonic…
  • Standard tuning
    P= pull off
    pm= palm mute
    ___
     3  =triplet
                   I juss got bored thought id put this on
    
    E------------------------------------------------
    B------------------------------------------------
    G------------------------------------------------
    D---p--------------------------------------------
    A--3-0-------------------------------------------
    E-------3-2----0-5-3-----0-0-0-0-0-0-0-0-0-------…
  • Tuning: Eb
    
    Intro:
    |-------------------------------------------|
    |----------------------------------0h2p0----|
    |------2---2-4-4s6-4--2--1h2p1----------2-1-|
    |-4---4--------------------------2----------|
    |---4---------------------------------------|
    |-------------------------------------------|
    
    |------s9-----------------------------------|
    |------s7--s3-2--0h2p0----------------------|
    |-----2----------------s2--1h2p1----1h2p1-1-|
    |-4-------------------------------2------2--|
    |---4---------------------------------------|
    |-------------------------------------------|
    
    |--------------------------------------------------------------|
    |--------2-2--3-2---2-----------------------9-9b10r9-----------|
    |----2-4----------4---4-2---2----------9-11---------11-9-------|
    |(4)----------------------4---4-s2--s11------------------11-9--|
    |--------------------------------------------------------------|
    |--------------------------------------------------------------|
    
    |---------------------------------------------14b16r14b16-16r14p12-14-b16--|
    |---------12b14r12b14p10-12b14r12b14---------------------------------------|
    |----9-11--------------------------------9-11------------------------------|
    |-11----------------------------------11-----------------------------------|
    |--------------------------------------------------------------------------|
    |--------------------------------------------------------------------------|
    
    |------------------------------------------|
    |------------------------------------------|
    |s7-s9-9b10r9-7-6---6---7-7b8r7---7--------|
    |s5----------------4--4----------5--5--5---|
    |------------------------------------------|
    |------------------------------------------|
    
    |---------s10-9--7h9p7------------------7--|
    |----------------------10-----------7------|
    |--------7----------------7-6---------7----|
    |------9----------------------7--9---9-----|
    |-s10-----------------------------9--------|
    |------------------------------------------|
    
    
    Verse:
    |----------------------------------|
    |--------------------0-----0h2p0---|
    |-----2-----2-4----1------------2--|
    |-4--------------2-------2---------|
    |---4------------2-----------------|
    |----------------------------------|
    
    |----------------------------------|
    |--------------------0-------------|
    |-----2-----2-4----1-------1h2p1---|
    |-4--------------2-------2------2--|
    |---4------------2-----------------|
    |----------------------------------|
    
    
    Chorus:
    |------------------------------------------|
    |------------------------------------------|
    |s7-s9-9b10r9-7-6---6---7-7b8r7---7--------|
    |s5----------------4--4----------5--5--5---|
    |------------------------------------------|
    |------------------------------------------|
    
    |---------------------------------7--------|
    |--------------------------------7--(7)----|
    |---7-6-7--s9----9--7-6-7-----7------------|
    |-5-------5s7--7-----------9-9--9----------|
    |---------------------------9--------------|
    |------------------------------------------|
    
    
    [Verse…
  • Tune to D
     
    Left Guitar:
    
    E------------------5----------6---------6----|
    B-------8---------------------8-------8-8-8--|
    G-----7---7------7---7------7---7-----7---7--|
    D--0----------4----------5---------5---------|
    A--------------------------------------------|
    E--------------------------------------------|
    
    
    E------------------5----------5---------6----|
    B-------8-------------------------------8-8--|
    G-----7---7------7---7------7---7-----7------|…
  • Tuning: Drop A# (A# F A# D# G C)
     
    INTRO
    With Delay
    C ----17--------------18-17---22-17----18------17----17----17----------
    G -15----18-15-----15--------------18------15----15----18----18--------
    D#-------------15~-----------------------------------------------------
    A#---------------------------------------------------------------------
    F…
  • A
    ----------------------------------------------
    ----------------------------------------------
    ----------------------------------------------
    ----2---------------------2-----------------
    -------2-----------3--------2---3---5-----
    -0--------3---2------0---------------------
    B
    ----------------------------------------------
    ---3--------------------3--------------------
    -----2------------3---------2---3---5------
    -0-------2---2------0-----------------------
    -----------------------------------------------
    -----------------------------------------------
    C
    ----------------------------------------------
    ----------------------------------------------
    -14-14-12-14-15-12-14-14-12------
    ----------------------------------------------
    ---------------------------------------------
    ----------------------------------------------
    D
    -------------------------------------------
    -------------------------------------------
    -(9)*--9-9-7-9-10-7-9-9-7--------
    -------------------------------------------
    -------------------------------------------
    ------------------------------------------
    *note:…
  • Tuning D
    
    Acoustic Break
    ------------0------------------0------------------------------------------------
    --------------0------------------0-----------1--------1-------3-----------------
    -------0--------0---------0--------------------2--------0-------0---------------
    ---------2--------2---------2--------------2--------2-------------4----0--0-----
    -----2------------------2----------------0--------3---------5-------------------
    ---0------------------0--------------0-3------------------------------3--2---0--
    
    
    
    Tune…
  • Tunning is A#.
    
    | /  slide up
    | \  slide down
    | h  hammer-on
    | p  pull-off
    | ~  vibrato
    | +  harmonic
    | x  Mute note
    | b  bend note
    | ~  let ring
    ===============================================================================
    
    Intro:
    
    Guitr1…
  • ..  - palm mute          /  - slide up to
       - slide down to      ~  - vibrato
     h  - hammer on          b  - bend
     p  - pull off            Suffixes for bend
                              ph - pinch harmonic…
  • ..  - palm mute          /  - slide up to
       - slide down to      ~  - vibrato
     h  - hammer on          b  - bend
     p  - pull off            Suffixes for bend
                              ph - pinch harmonic…
  • Drop C Tuning:
    
    Intro (0:00)
    |--------------|
    |--------------|
    |--------------|
    |-0--1-11-3-33-|
      .
    
    Intro (0:04)
    |---------------------------------------------------------|
    |---------------------------------------------------------|
    |-0--0--0-0-0--3--3--3--3-3-3-3---------------------------|
    |--------------------------------1--1-1-1-0--0--1-3--1-3--|…
  • F#                    G                    A                    E
          2 4 4 3 x x          3 5 5 4 x x          5 7 7 6 x x          0 2 2 1 x x
    
       Intro - Fade In
        Q=124
       4/4
        Gtr I…
  • Tuning: C Standard (C F Bb Eb G C)
    
    First solo (at about 2:26, after "Pretend, Betray!"):
    
    |-17b19-17-15--15b17-12-14-15-14-------------------------------------------|
    |--------------------------------15b17~------15----13--12--------------15~-|
    |-----------------------------------------12----12---------12-14-12-11-----|
    |--------------------------------------------------------------------------|
    |--------------------------------------------------------------------------|
    |--------------------------------------------------------------------------|
    
    |-15--15--15--15--15--15--15--15--15--15--15--15--15--15--17-19-|
    |-18b-18b-18b-18b-18b-18b-18b-18b-18b-18b-18b-18b-18b-18b-------|
    |---------------------------------------------------------------|
    |---------------------------------------------------------------|
    |---------------------------------------------------------------|
    |---------------------------------------------------------------|
    
    |-17h19p17--------------------------15h19p15------15h19s22~-|
    |----------20p19h20p19-20b22~-----17--------17--17----------|
    |-------------------------------16------------16------------|
    |-----------------------------------------------------------|
    |-----------------------------------------------------------|
    |-----------------------------------------------------------|
    
    Then…
  • Tune down two whole steps (C).
    
         RIFF A
    E-|------------------------------------------------------------------|
    B-|------------------------------------------------------------------|
    G-|---------2-----------------2------2-3-2------0------2-3-----------|
    D-|--3-0000---00000000-3-0000---0000-----3-3333---3333---------------|
    A-|------------------------------------------------------------------|
    E-|------------------------------------------------------------------|…
  • Legend
    
    pm.: Palm Mute         :   Slide Back
    *PH: Pinch Harmonic    h:   Hammer-on
    ^fb: Full Bend         p:   Pull-off
    ^hb: Half Bend         ~:   Let Note Ring (Vibrato)
    /:   Slide Forward     ():  Ghost Note
    
    
    Tuning:…
  • A#-F-A#-D#-G-C
    
    
    
    
    
    W/WAH/FILTER
    ----------------------------------------------------------|
    ----------------------------------------------------------|
    ----------------------------------------------------------|
    -0-3-0-7-0-8-0-0-3-0-7-0-8-0-0-3-0-7-0-8-0-0-3-0-7-0-8-0--|
    ----------------------------------------------------------|
    ----------------------------------------------------------|
    
    
    L
    ----------------------------------------------------------|
    ----------------------------------------------------------|
    ----------------------------------------------------------|
    -0-3-0-7-0-8-0-0-3-0-7-0-8-0-0-3-0-7-0-8-0-0-3-0-7-0-8-0--|
    ----------------------------------------------------------|
    ----------------------------------------------------------|
    
    R
    ----------------------------------------------------------|
    ----------------------------------------------------------|
    ----------------------------------------------------------|
    -0-7-0-10-0-12-0-0-7-0-10-0-12-0-0-7-0-10-0-12-0-0-7-0-10-|
    ----------------------------------------------------------|
    ----------------------------------------------------------|
    
    
    
    
    0:31
    
    ---------------------------------------------------------|
    ---------------------------------------------------------|
    ---------------------------------------------------------|
    ---------------------------------------------------------|
    ---------------------------------------------------------|
    -0-3-0-7-0-8-0-0-3-0-7-0-8-0-0-3-0-7-0-8-0-0-3-0-7-0-8-0-|
    
    ---------------------------------------------------------|
    ---------------------------------------------------------|
    ---------------------------------------------------------|
    ---------------------------------------------------------|
    ---------------------------------------------------------|
    -0-3-0-7-0-8-0-0-3-0-7-0-8-0-0-3-0-7-0-8-0-0-3-0-7-0-8---|
    
    
    
    L
    ------------------------___----------------------------|
    ----------------)()(---/…
  • ..  - palm mute          /  - slide up to
       - slide down to      ~  - vibrato
     h  - hammer on          b  - bend
     p  - pull off            Suffixes for bend
                              ph - pinch harmonic…
  • ..  - palm mute          /  - slide up to
       - slide down to      ~  - vibrato
     h  - hammer on          b  - bend
     p  - pull off            Suffixes for bend
                              ph - pinch harmonic…
  • Tune To C
    Guitar 1
    |--------------------|---------------------------------------------|
    |--------------------|---------------------------------------------|
    |--------------------|---------------------------------------------|
    |----7---9--7--7--5-7|--7---9--777-444-225-------------------------|
    |---7--10--7--7--7---|-7--10--7---5---3----------------------------|
    |-0--0---0--0--0-----|0--0---0-------------------------------------|
    Guitar…
  • Legend
    
    pm.: Palm Mute         :   Slide Back
    *PH: Pinch Harmonic    h:   Hammer-on
    ^fb: Full Bend         p:   Pull-off
    ^hb: Half Bend         ~:   Let Note Ring (Vibrato)
    /:   Slide Forward     ():  Ghost Note
    
    Tuning:…
  • Tuning : 1 down
    
    
    *** time - 0:44
    Part_A
      2 times Repeat
    #||---------------------------------------|--------------------------------------|
    #||---------------------------------------|--------------------------------------|
    #||o--7-7-7-7--10101010-8-8-8-8--7-7-7-7--|--5-5-5-5--8-8-8-8--7-7-7-7--5-5-5-5--|
    #||o--------------------------------------|--------------------------------------|
    #||---------------------------------------|--------------------------------------|
    #||---------------------------------------|--------------------------------------|…
  • B= bend
     = slide down
     /= slide up
     ~= vibrato
    
      Time 00:50
    E|---------------------------------------------------------------------------
    B|---------------------------------------------------------------------------
    G|---------------------------------------------------------------------------
    D|-2---x-x-x--2---x-x-x--2---x-x-x------------3------------------------------
    A|-2---x-x-x--2---x-x-x--2---x-x-x---0--2--3-----2--3------------------------
    e|-0---x-x-x--0---x-x-x--0---x-x-x-------------------------------------------
    
    E|---------------------------------------------------------------------------
    B|---------------------------------------------------------------------------
    G|---------------------------------------------------3-----------------------
    D|-2---x-x-x--2---x-x-x------------3--------0--2--3-----2--3-----------------
    A|-2---x-x-x--2---x-x-x---0--2--3-----3--2-----------------------------------
    e|-0---x-x-x--0---x-x-x------------------------------------------------------…
  • Intro
      
           
    
      Gtr I
    |----------------------------------|---------------------------------|
    |o---------------------------------|---------------------------------|
    |----------------------------------|---------------------------------|
    |----------------------------------|---------5-5-5-5-7-7-7-7-9-9-9-9-|
    |o---------------------------------|---------------------------------|
    |--0-0-0-0-0-0-0-0-0-0-0-0-0-0-0-0-|-3-3-3-3-------------------------|
    |
    |…
Наверх