Аккорды In Flames - Come Clarity

Добавлено: @romashka
Дата добавления: 01 Апреля 2021г.
Рейтинг:
0.0
Просмотров: 126
Транспонировать - +
Вступление
E||-------------------------|--------------------------|
B||-----------0-------------|-----------1--0-----------|
G||--------2-------2--------|--------2--------2--------|
D||-----2-------------2-----|-----3--------------3-----|
A||--0-------------------0--|--0--------------------0--|
E||-------------------------|--------------------------|


--------------------------|--------------------------|
--------------------------|--------------------0--1--|
--------0--------0--------|-----------------2--------|
-----0--------0-----0-----|--------0-----2-----------|
--3--------2-----------2--|-----0-----0--------------|
--------------------------|--3-----------------------|

-------------------------|--------------------------|
-----------0-------------|-----------1--0-----------|
--------2-------2--------|--------2--------2--------|
-----2-------------2-----|-----3--------------3-----|
--0-------------------0--|--0--------------------0--|
-------------------------|--------------------------|

--------------------------|--------------------------||
--------------------------|-----------------------1--||
--------0--------0--------|--------------------0-----||
-----0--------0-----0-----|--------0--------3--------||
--3--------2-----------2--|-----0--------3-----------||
--------------------------|--3--------1--------------||

Куплет
              Asus2                       F
E||-------------------------|--------------------------|
B||-----------0-------------|-----------1--0-----------|
G||--------2-------2--------|--------2--------2--------|
D||-----2-------------2-----|-----3--------------3-----|
A||--0-------------------0--|--0--------------------0--|
E||-------------------------|--------------------------|
                Rushing 

           C                           G                         Asus2
--------------------------|--------------------------|
--------------------------|--------------------0--1--|
--------0--------0--------|-----------------2--------|
-----0--------0-----0-----|--------0-----2-----------|
--3--------2-----------2--|-----0-----0--------------|
--------------------------|--3-----------------------|
     through thirty                               

-------------------------|
-----------0-------------|
--------2-------2--------|
-----2-------------2-----|
--0-------------------0--|
-------------------------|
    Getting    

             F                         C
--------------------------|--------------------------|
-----------1--0-----------|--------------------------|
--------2--------2--------|--------0--------0--------|
-----3--------------3-----|-----0--------0-----0-----|
--0--------------------0--|--3--------2-----------2--|
--------------------------|--------------------------|
    older                             every day...

           G                         Asus2
--------------------------|--------------------------|
-----------------------1--|--0--------0--------0-----|
--------------------0-----|-----2--------2--------2--|
--------0--------3--------|--------2--------2--------|
-----0--------3-----------|--------------------------|
--3--------1--------------|--------------------------|
                     by     two          Drawing

           F                           C
--------------------------|--------------------------|
--0--------0--------0-----|--------1--------1--------|
-----2--------2-----------|-----2--------2--------2--|
--------0--------0-----0--|--3--------3--------3-----|
--------------------------|--------------------------|
--------------------------|--------------------------|
   pictures                        of innocent

           G                         Asus2
--------------------------|--------------------------|
--------0--------0--------|--0--------0--------0-----|
-----2--------2--------2--|-----2--------2--------2--|
--3--------3--------3-----|--------2--------2--------|
--------------------------|--------------------------|
--------------------------|--------------------------|
    times                                Can you 
 
           F                           C
--------------------------|--------------------------|
--0--------0--------0-----|--------1--------1--------|
-----2--------2-----------|-----2--------2--------2--|
--------0--------0-----0--|--3--------3--------3-----|
--------------------------|--------------------------|
--------------------------|--------------------------|
   add                       color... 
 
           G
--------------------------||
--------0--------0--------||
-----2--------2--------2--||
--3--------3--------3-----||
--------------------------||
--------------------------||
        inside these lines?

Припев 2 раза
Am                      C
  I want you to lead me
           G
  Take me somewhere
                 Dm
  Don't want to live
         F
  In a dream... one more day    

Проигрыш:
E||--------------------------|--------------------------|
B||--0--------0--------0-----|--0--------0--------0-----|
G||-----2--------2--------2--|-----2--------2-----------|
D||--------2--------2--------|--------0--------0-----0--|
A||--------------------------|--------------------------|
E||--------------------------|--------------------------|


--------------------------|--------------------------|
--------1--------1--------|--------0--------0--------|
-----2--------2--------2--|-----2--------2--------2--|
--3--------3--------3-----|--3--------3--------3-----|
--------------------------|--------------------------|
--------------------------|--------------------------|

Куплет
Sure it would change my perspective
I'm certain I would change today
I'm certain it would change our ways
Would things fall into place?

Припев 2 раза
Am                      C
  I want you to lead me
           G
  Take me somewhere
                 Dm
  Don't want to live
         F
  In a dream... one more day 

Брейк
F G  Am  Am G F# F E F G# 
Соло:
Am F C G  x4 раза

Проигрыш вступления

Припев 2 раза
Am                      C
  I want you to lead me
           G
  Take me somewhere
                 Dm
  Don't want to live
         F
  In a dream... one more day 

Можно играть и аккордами. С учётом стандартного строя, песня подобрана на полтона ниже. Для идентичности тональности можно использовать каподастр на 1-м ладу.
Наверх