Аккорды In Flames - Only for the Weak

Добавлено: @romashka
Дата добавления: 22 Мая 2016г.
Рейтинг:
0.0
Просмотров: 264
Транспонировать - +
 .  - palm mute          /  - slide up to
   - slide down to      ~  - vibrato
 h  - hammer on          b  - bend
 p  - pull off            Suffixes for bend
                          ph - pinch harmonic
                           f - full bend    h - half bend
*  - see comment           r - release      t - tap bend
X  - percussion mute       ~ - vibrato bend
@  - slight palm mute     () - ghost note, sustained note

Tune Bass to C (C, F, A#, D#)

Intro/Chorus I (0:00)
|-----------------------------------------------------------------|
|-----------------------------------------------------------------|
|-----------------3-3-3-3-5-5-5-5-------------------------5-5-5-5-|
|-0-0-0-0-5-5-5-5-----------------0-0-0-0-5-5-5-5-3-3-3-3---------|x2
                                                     (End with a high C the last time)

Pre-Verse I (0:21)
|-------------------------------------|
|-------------------------------------|
|-------------------------------------|
|-0-0-0-0-0-0-000---0-0-0-0-0-0-000---| x2

Verse I (0:30)
|-----------------------------------------------------------------|
|-----------------------------------------------------------------|
|-------------------------------------------------2-2-2-2-2-2-2-2-|
|-0-0-0-0-0-0-0-0-3-3-3-3-3-3-3-3-0-0-0-0-0-0-0-0-----------------| x2

Pre-Verse II (0:48)
|------------------------------------|
|------------------------------------|
|-----------------2-2-2-2--333--555--|
|-0-0-0-0-3-3-3-3--------------------| x2
      ...  ...

Verse II (0:57)
|---------------------------------|
|--------------------------------:|
|-3~---------------5~------------:|
|------0~----3~-------------------| x4

Chorus I x2 (1:16)
Verse I x2 (1:36)
Pre-Verse II x2 (1:55)
Verse II x4 (2:04)
Chorus I x4 (2:22)

Solo (2:58)
|-------------------------------------------------------------------|
|-------------------------------------------------------------------|
|-------------------------------------------------2-2-2-2--333--555-|
|-0-0-0-0-0-0-0-0-3-3-3-3-3-3-3-3-0-0-0-0-0-0-0-0-------------------| x2
          ...  ...

Verse II x4 (3:16)

(3:35)
|-----------------|
|-Some-Special-FX-|
|------(REST)-----|
|-----------------|

Chorus II x4 (3:40)
|-----------------------------------------------------------------|
|-----------------------------------------------------------------|
|-----------------5-5-5-5-7-7-7-7---------------------------------|
|-2-2-2-2-7-7-7-7-----------------2-2-2-2-7-7-7-7-5-5-5-5-0-0-0-0-| x?

After this last riff, the song fades out.
Play it 8 times (I think) and then start playing softer, thus fading out.
Or else, you (and your band?) can come up with your own personal ending.
Наверх