Аккорды In Flames - The Jester Race

Добавлено: @romashka
Дата добавления: 22 Мая 2016г.
Рейтинг:
0.0
Просмотров: 248
Транспонировать - +
Intro:

Guitar I
2x
[-----------------------------------------------------------]
  PM....         PM.....         PM...           PM.
-------------------------------------------------------------
--9---9--7---7---10---10-9---9---7---7-9----9----7-7--5---5--
--11--11-9---9---12---12-11--11--5---5-11---11---5-5--3---3--
-------------------------------------------------------------
-------------------------------------------------------------
-------------------------------------------------------------
-------------------------------------------------------------

Repeat this 2x.  It ends with Palm Muting the 2nd time, and the 2nd guitar
enters

Guitar I
3x
[-----------------------------------------------------------]
  PM....         PM.....         PM...           PM.
-------------------------------------------------------------
--9---9--7---7---10---10-9---9---7---7-9----9----7-7--5---5--
--11--11-9---9---12---12-11--11--5---5-11---11---5-5--3---3--
-------------------------------------------------------------
-------------------------------------------------------------
-------------------------------------------------------------
-------------------------------------------------------------

Guitar II
1st time
  PM..................................................
--3-3-3-3-3-3-3-3-3-3-3-3-3-3-3-3-3-3-3-3-3-3-3--2--2--------
--5-5-5-5-5-5-5-5-5-5-5-5-5-5-5-5-5-5-5-5-5-5-5--4--4--------
--5-5-5-5-5-5-5-5-5-5-5-5-5-5-5-5-5-5-5-5-5-5-5--4--4--------
-------------------------------------------------------------
-------------------------------------------------------------
-------------------------------------------------------------

2nd time
  PM...................................................
--333-3-3-3-3-3-3-333-3-3-3-3-3-3-333-3-3-3-3-3-3--2--2------
--555-------------555-------------555--------------4--4------
--555-------------555-------------555--------------4--4------
-------------------------------------------------------------
-------------------------------------------------------------
-------------------------------------------------------------

3rd time
  PM...................................................
--333-3-3-333-333-333-3-3-333-333-333-3-3-333-333--2--2------
--555-----555-555-555-----555-555-555-----555-555--4--4------
--555-----555-555-555-----555-555-555-----555-555--4--4------
-------------------------------------------------------------
-------------------------------------------------------------
-------------------------------------------------------------




Normal Tuning

Bass+Guitar1

G   -------------------|----------------------|---------------5---|
D   --10--10--8--8--8*-|--11--11--10--10--10*-|--8--8--6--6*--6---|
A   ---8---8--8--8--8--|---8---8---8---8---8--|--8--8--8--8-------|
E   -------------------|----------------------|-------------------|
    * I'm not sure whether these chords are played or it's the echo,
    I think it sounds best when you do play them 

   (End of riff) 
   1~~~~~~~~~~~~~~~~   2~~~~~~~~~~~~~~~~
G   ----------------|   ----------------|
D   --8--8--6---6---|   --8----8--6--6--|
A   --6--6--4---4---|   ----6-----4--4--|
E   ----------------|   ----------------|


Guitar2

G   -------------------------|---------------------------|
D   --10-----10----8----8----|--11-----11----10----10----|
A   -------8----8----8----8--|-------8----8-----8-----8--|
E   -------------------------|---------------------------|


G   -------------------5----|
D   --8-----8----6-------6--|
A   ------8---8-----8-------|
E   ------------------------|

   
   (End of riff) 
   1~~~~~~~~~~~~~~~~~~~~~~   2~~~~~~~~~~~~~~~~~~~~~~
G   ----------------------|   ----------------------|
D   --8----8-----6-----6--|   --8----8----6---6-----|
A   ----6-----4-----4-----|   ----6-----4---4---4---|
E   ----------------------|   ----------------------|
Наверх