Аккорды In Flames - When The World Explodes

Добавлено: @romashka
Дата добавления: 22 Мая 2016г.
Рейтинг:
0.0
Просмотров: 289
Транспонировать - +
Dropped A tuning: A#-F-A#-D#-G-C

(v) Vibrato
\ slide
X: palm mute


Intro:

    x x x x              x x x x
----------------------------------------------------------|
----------------------------------------------------------|
----------------------------------------------------------|
----------------------------------------------------------|
------------0--------------------0-3\6-5(v)---------------|
-8/-0-0-0-0-0-3\6-5(v)---0-0-0-0-0------------------------|

 x x x x             x x x x
----------------------------------------------------------|
----------------------------------------------------------|
-------------------------------5-3-2h3p2------------------|
-----------------------------------------5-3-2------------|
---------0-------------------0-----------------5----------|
-0-0-0-0-0-3\6-5(v)--0-0-0-0-0----------------------------|


Before verse:
----------------------------------------------------------|
----------------------------------------------------------|
----------------------------------------------------------|
------7---------------------------------------------------|
------7---------------------------------------------------|
------7---------------------------------------------------|

Verse: (Listen to the song for the exact pattern)

  x x x x      x x  x x   x x x x      x x  x x
----------------------------------------------------------|
----------------------------------------------------------|
----------------------------------------------------------|
----------7--7--------------------7--7--------------------|
----------7--7--------------------7--7--------------------|
--7-7-7-7-7--7-7-7--7-7---7-7-7-7-7--7-7-7--7-7-----------|

Chorus:
                x x x x x x x x                    x x x x x x
---------------------------------------------------------------------|
---------------------------------------------------------------------|
---------------------------------------------------------------------|
--0-0--3-3--10------------------------0-0--3-3--10-------------8-7---|
--0-0--3-3--10------------------------0-0--3-3--8--------------------|
--0-0--3-3--10--0-0-0-0-0-0-0-0-------0-0--3-3--8--0-0-0-0-0-0-------|


Part where the lady sings "So if I never get to say this to you":

----------------------------------------------------------|
----------------------------------------------------------|
------------------7---------------------------------------|
--3-------2-------7------7--------------------------------|
--3-------0-------5------7--------------------------------|
--3-------0--------------7--------------------------------|


Solo rhythm:

   x x x x      x x  x x      x x x x      x x  x x
----------------------------------------------------------|
----------------------------------------------------------|
----------------------------------------------------------|
-----------7--7-----------------------7--7----------------|
---5-5-5-5-5--5-5-5--5-5------5-5-5-5-5--5-5-5--5-5-------|
----------------------------------------------------------|


  x x x x      x x  x x   x x x x      x x  x x
----------------------------------------------------------|
----------------------------------------------------------|
----------------------------------------------------------|
----------8--8--------------------8--8--------------------|
----------8--8--------------------8--8--------------------|
--8-8-8-8-8--8-8-8--8-8---8-8-8-8-8--8-8-8--8-8-----------|


Solo:
----------------------------------------------------------|
------------------------10-11-----------------------------|
---14-12-10----10-12-14-------14-12-10-12-10--------------|
------------14-------------------------------14-12--------|
----------------------------------------------------------|
----------------------------------------------------------|

----------------------------------------------------------|
------------------------10-11-----------------------------|
---14-12-10----10-12-14-------14-12-10-12-10--------------|
------------14-------------------------------14-12--------|
----------------------------------------------------------|
----------------------------------------------------------|
 
----------------------------------------------------------|
--------------------8-10----------------------------------|
---10-9-7----7-9-10------12-10-9-10-9-7-------------------|
----------10---------------------------10-----------------|
----------------------------------------------------------|
----------------------------------------------------------|

----------------------------------------------------------|
--------------------8-10-----10-11-10(v)------------------|
---10-9-7----7-9-10------12-------------------------------|
----------10----------------------------------------------|
----------------------------------------------------------|
----------------------------------------------------------|


--17-15-13----13-15-17-17-18-17-15----15------------------|
-----------15----------------------18----18-17-15---------|
----------------------------------------------------------|
----------------------------------------------------------|
----------------------------------------------------------|
----------------------------------------------------------|

--17-15-13----13-15-17-17-18-17-15----15------------------|
-----------15----------------------18----18-17-15---------|
----------------------------------------------------------|
----------------------------------------------------------|
----------------------------------------------------------|
----------------------------------------------------------|

------------------------15-17-15--------------------------|
---18-17-15----15-17-18----------18-17-18-17-15-----------|
------------17----------------------------------17--------|
----------------------------------------------------------|
----------------------------------------------------------|
----------------------------------------------------------|


------------------------15-17-15-17-18-17(v)--------------|
---18-17-15----15-17-18-----------------------------------|
------------17--------------------------------------------|
----------------------------------------------------------|
----------------------------------------------------------|
----------------------------------------------------------|

Then the same parts repeat till the end.
Наверх