Аккорды «Incubus»

Incubus
Команда из калифорнийского городка Калабасаса, созданная в 1991 году одноклассниками Брэндоном Бойдом (вокал, перкуссия), Майком Эйнзайгером (гитара), Алексом Катуничем ака Дирк Ланс (бас) и Хосе Пассиласом (ударные). Начали они с фанк-рока, позаимствовав многое у "Red hot chili peppers". Потихоньку саунд группы трансформировался по мере добавления в музыку элементов рэп-кора и пост-гранжа. Команда с самого начала регулярно выступала на публике, катаясь с концертами по южной Калифорнии.… Читать полностью... Команда из калифорнийского городка Калабасаса, созданная в 1991 году одноклассниками Брэндоном Бойдом (вокал, перкуссия), Майком Эйнзайгером (гитара), Алексом Катуничем ака Дирк Ланс (бас) и Хосе Пассиласом (ударные). Начали они с фанк-рока, позаимствовав многое у "Red hot chili peppers". Потихоньку саунд группы трансформировался по мере добавления в музыку элементов рэп-кора и пост-гранжа. Команда с самого начала регулярно выступала на публике, катаясь с концертами по южной Калифорнии. В 1995 году в коллективе появился ди-джей Лайф ака Гэйвин Коппел, при участии которого на свои деньги ребята выпустили дебютный альбом "Fungus amongus". На этот релиз обратили внимание звукозаписывающие фирмы, тем более что "Incubus" уже хорошо были известны в своей родной Калифорнии. Получив контракт от "дочки" "Epic", лейбла "Immortal", парни записали дебютный мини-альбом "Enjoy incubus", состоявший в основном из переработанных демозаписей. Полнометражный диск появился на следующий год, после чего "Incubus" отправились в турне по Штатам разогревать такие команды, как "Korn", "Primus", "311", "Sublime" и "Unwritten law". Популярность группы значительно увеличилась, и летом 1998 года она получила приглашение на участие в "Оззфесте". В том же году музыканты засветились и в "Family Values tour", организованном "Korn". К тому времени из-за личных разногласий команду покинул ди-джей Лайф, а его место занял ди-джей Килмор. Немного отдохнув от гастролей, "Incubus" записали очередной альбом - "Make yourself", и вновь отправились в путь. На этот раз компанию нашим героям составили такие коллективы, как "System of a down", "Snot", "Limp bizkit". После выхода сингла "Pardon me" соответствующий клип попал на MTV, благодаря чему его тиражи приблизились к "платиновой" отметке. Между тем "Make yourself" хотя и попал в самый конец Топ 50, но стабильно продавался и потихоньку диск собрал двойную "платину". Песня "Stellar" с этой пластинки частенько крутилась по радио и ТВ, но самым большим хитом стала композиция "Drive", пробившаяся в лучшую американскую десятку. В 2000 году "Incubus" вновь приняли участие в "Ozzfest", а затем сопровождали Моби в его туре "Area: One". В том же году команда выпустила в свет мини-альбом ''When Incubus Attacks, Vol. 1'', составленный из редких вещей, а также переиздала свою первую пластинку "Fungus amongus". Новая студийная работа под названием "Morning view" вышла в свет в конце 2001-го. Альбом дебютировал в американских чартах на второй позиции, доказав тем самым, что "Incubus" продолжают оттачивать свое мастерство. Композиции "Wish You Were Here", "Nice to Know You" и "Warning" моментально были подхвачены радиоэфиром, а сама группа отправилась в очередное турне уже в роли хедлайнеров. Весной 2003-го пришло известие о том, что басист Дирк Ланс покинул ряды коллектива. Однако буквально через несколько дней вакансия была заполнена приятелем Эйнзайегра и бывшим участником группы "Roots" Беном Кенни. Официальный сайт группы -- http://www.enjoyincubus.com/ Скрыть...
Популярные аккорды Incubus:
алфавиту | просмотрам | случайно
  • e|-------0-0--------------------------------------
    B|-------8-8------7---------5-5-----5-------------
    G|-------0-0------7---------4-4-------------------
    D|----9-----------5---------5-5-----5-------------
    A|-------------7-------0-3------------------------
    E|-0------------------------------5-5-------------…
  • Verse:
    
    I use a chorus with a little distortion and some echoy reverb.
    E|---------------------------12-------------------------------------------------------------------|
    B|------------------------------9-10--------------------------------9-----------------------------|
    G|-9h11-9h11-9h11-------------------------9h11-9h11-9h11-----------9-9---9h11---------------------|
    D|-----------------11--9h11-------------------------------11--9h11----11--------------------------|
    A|------------------------------------------------------------------------------------------------|
    E|------------------------------------------------------------------------------------------------|
    Play…
  • Normal tuning G,D,A,E
    
    intro/verses 00:28-00:54
    G----------------------------------------------|
    D----------------------------------------------|x4
    A-10/7–7-7/3-3-3-------------------------------|
    E----------------3-3-3-3-3-0-0-0---------------|
    chorus…
  • Tuning: Standard
    
    Intro/Chorus/Outro
    E|--------------------------------------------------------|
    B|--------------------------------------------------------|
    G|--7777-7777-8888-7777-7-10-8----------------------------|
    D|--7777-7777-8888-7777-7-10-8--9999-9999-99-88-88-88-88--|
    A|--5555-5555-6666-5555-5--8-6--9999-9999-99-88-88-88-88--|
    E|------------------------------7777-7777-77-66-66-66-66--|…
  • Intro/verse
    flanger/echo
    
    |---------------------------------------
    |---------------------------------------
    |-8^-6^-8^-6^-8^-6^-4^-3^---------------
    |-x^-x^-x^-x^-x^-x^-x^-x^---------------
    |-6^-4^-6^-4^-6^-4^-2^-1^---------------
    |-7^-5^-7^-5^-7^-5^-3^-2^---------------
    
    pre-chorus/bridge
    flanger/echo
    |----------------------------------------------------
    |----------------------------------------------------
    |----------------------------------------------------
    |-4-(4)(4)(4)(4)(4)-2-(2)--4-(4)(4)(4)(4)(4)--2-(2)--
    |-4-(4)(4)(4)(4)(4)-2-(2)--4-(4)(4)(4)(4)(4)--2-(2)--
    |-2-(2)(2)(2)(2)(2)-0-(0)--2-(2)(2)(2)(2)(2)--0-(0)--
    
    |----------------------------------------------------
    |----------------------------------------------------
    |----------------------------------------------------
    |-4-(4)(4)(4)(4)(4)-2-(2)--4-(4)(4)(4)(4)(4)--2-(2)--
    |-4-(4)(4)(4)(4)(4)-2-(2)--4-(4)(4)(4)(4)(4)--2-(2)--
    |-2-(2)(2)(2)(2)(2)-0-(0)--2-(2)(2)(2)(2)(2)--0-(0)--
    
    
    first…
  • Intro/clean 0:00
    e---------------------------------------------------|
    b---------------------------------------------------|
    g--4-x--------------3-x--4-x-------------3-x-3-x-4--|
    d--4-x-5-5-x-5-5-x--3-x--4-x-5-5-x-5-5-x-3-x-3-x-4--|
    a--2-x-5-5-x-5-5-x--1-x--2-x-5-5-x-5-5-x-1-x-1-x-2--|
    d------5-5-x-5-5-x-----------5-5-x-5-5-x------------|
    
    repeat…
  • E|------------------------------------------------|
    B|------------------------------------------------|
    D|-2h4p2------------------------------------------|
    G|-------4p2--------------------------------------|
    A|----------*5--5p2-0-----------------0—0h2p0-----|
    E|---------------------0h1-2--0-2p0-2-------------|
    
    E|---------------------------------------------|
    B|---------------------------------------------|
    D|---------------------------------------------|
    G|-5—5p2-0-------------------------------------|
    A|-----------------2-2-0—0h2p0-----------------|(repeat…
  • Intro, Main riff
    
    E---------------------------------------------------------- B----------------------------------------------------------
    G---------------------------------------------------------  D---------0~---------------------0~-----0~---*5*-----
    A-----4~-----4~------4~-------4~-----4~----------------
    D—0~-------------0~------5~-------------------------------…
  • Pre verse/bridge
    
    (play 2x)-----------------------------------------
    E--0-------0------------0---------0-----------0---------
    B--0-------0------0--0-----0--------7-------------7-----
    G--4-------4-------4---------4------6-----4-------4-----
    D--2-------2-------2---------2------------6-------6-----
    A--4-------4-------4---------4--------------------7-----
    E----------5-----------------5--------------------------
    
    chorusE(b…
  • Tuning: Dropped D
    
    Intro pt. 1 clean w/ phaser
    
    E----------------------------------------------------------|
    B----------------------------------------------------------|
    G---------------00-----------------------------------------|
    D-------------------44---------------3-3-3-3/-8-8-8-8------|…
  • Intro
    Needed for the Intro:
    -Delay
    -Phaser
    What to do: Swell the volume on the guitar to get this streaming sound.
    
    
    |----------------------------------------------------|
    |----------------------------------------------------|
    |---------7--7-7----------------7--7-7---------------|
    |-0-4-4-4-7--7-7-0-4-4--0-4-4-4-7--7-7-0-4-4-4/7-7---|
    |-0-4-4-4-5--5-5-0-4-4--0-4-4-4-5--5-5-0-4-4-4/7-7---|
    |-0-2-2-2-0--0-0-0-2-2--0-2-2-2-0--0-0-0-2-2-2/5-5---|
    Chorus
    Needed…
  • Intro
    (Clean)
    e|------------------------------
    B|-2--2--2--2-----3--3--3--3----
    G|--2--2--2--2-----3--3--3--3---
    D|---3--3--3--3-----4--4--4--4-- x3
    A|------------------------------
    E|------------------------------
    
    Riff…
  • Main Riff
    |-----0------0------0------0-----------------------0------0-
    |-----0------0------0------0-----------------------x------x-
    |------------------------------------7------7------2------2-
    |---9------9------5------5-----------0------0---------------
    |-7------7------3------3-----------0------8------3------3---
    |-----------------------------0--6------6------1------1-----
    
    
    Chorus…
  • ------------------------------------------------------------------------------
    ------------------------------------------------------------------------------
    --------------4---------------------------------------------------------------
    -----4---6--------6----4----6-----------------------------------x2------------
    -6-----------------------------------------2----------------------------------
    --------------------------------0---2---4-----4---2---0-----------------------…
  • -9---9-9-9-9----------------------9---9-9-9-9--------------------1-------------
    -x---x-8-8-8----------------------x---x-8-8-8--------------------1-------------
    -6---6-6-6-6----------------------6---6-6-6-6--------------------1-------------
    ---------------7-7-7--xxxxx--------------------8-8-8-8-8--xxxxx--1---7-8-8-8-8-
    ---------------7-7-7--xxxxx--------------------8-8-8-8-8--xxxxx--1---7-8-8-8-8-
    ---------------5-5-5--xxxxx--------------------6-6-6-6-6--xxxxx--1---5/6-6-6-6-…
  • Tuning: Drop D
    
    Intro: Right as the song begins you do A1 and let it ring for like 5 secs. Then after
    that you proceed with A2 straight into A3. Then while playing A3 when the time of the
    song is about 00:17 A4 comes in…
  • Standard Tuning
    
    
    			Chords
    
    	Amin	C	F	dmin5	  G	G#	cmaj5  E
            -	-	-	-	- or -	 -	-	-
        E	0 	0	1	5	3    3	 4	8	0
        h	1	1	1	6	3    3	 4	8	0
        G	2	0	2	7	0    4	 5	9	1
        D	2	2	3	7	0    5	 6	10	2
        A	0	3	3	5	2…
  • G|----------------------------------------------------------------
    D|----------------------7--------------------------7--------------
    A|-----9-----9-10---5------------9------9-10---5------------------
    E|--7-----7-------------------7------7----------------------------…
  • Standard tuning. 
    
    Intro/riff 1 
    e|------------------------------------------------------ 
    B|-------------0------------------0--------0------------ 
    G|----------13-----13s----------8-----8s---4------------ 
    D|--------0---------0---------0-------0----0------------
    A|-----11----------11s------6---------6s---2------------
    E|--12-------------12s----7-----------7s---3------------
    
    e|------------------------------------------------------…
  • Intro:(w/distortion)
    
      P.M.>>>>>>>>>>>>>>>>>>>>
    E|--------------------------------------------|
    B|--------------------------------------------|
    G|----4-4--------4-4---4-4--------------4-4---|
    D|----4-4--------4-4---4-4--------------4-4---|
    A|----2-2--------2-2---2-2--------------2-2---|
    E|--------------------------------------------|…
  • JUST PLAY THIS RIFF OVER AND OVER AGAIN:
    
    E|--------------------------------|--------------------------------|
    B|--------------------------------|--------6-----------------------|
    G|----3-------3-------2-------2---|----3-------3-------------------|
    D|5---------------4---------------|5-------------------3-----------|
    A|--------------------------------|----------------5---------------|
    E|--------------------------------|--------------------------------|
    
    ABOUT…
  • |----------------------------------------
    |----------------------------------------
    |-------13-----13-------13------------13-
    |----------0-0---------------------------
    |----11----------------------------------
    |-12--------------10-10----(10/)11-11----
    
    The…
  • Intro:
    (Drums...)
    G|------------------------------------------------|
    D|------------------------------------------------| x2
    A|------------------------------------------------|
    E|-6-5-5-5-6-5--5-6---6-5-5-5-6-5--5-5------------|
    Let…
  • Standard4-string
    G|----------------------------------|
    D|----------------------------------|
    A|----5-5-555---7-------------------|
    D|------------------9---0-----------|
    
    
    5-string
    G|----------------------------------|
    D|----------------------------------|
    A|----5-5-555---7-------------------|
    E|-------------------7--------------|
    B|----------------------3-----------|…
  • Tuning:  drop-d. 
    
    Intro: w/dist
    e-------------------------------|-----------------------------------
    b-------------------------------|-----------------------------------
    g-------------------------------|-----------------------------------
    d----------------------5-5-5-5--|-------------------3/5-5-5--------
    a-----5-------5--------3-3-3-3--|------1-----1------3/5-5-5--------
    d-0-3---0--3-----3--0--5-5-5-5--|--0-3---0-3---3-0--3/5-5-5--------…
  • Chords:
    E|---|-5-|---|---|
    B|-5-|-5-|---|-0-|
    G|-7-|-5-|---|-2-|
    D|-7-|-7-|-2-|-2-|
    A|-5-|-7-|-2-|-0-|
    E|---|-5-|---|---|
       D   A   E   A2
    
    Verse:
       Riff A    Riff B     Riff C     Riff D
    E|-------1-|-------0-|---------|-3--1p0---0-|
    B|-----1-1-|-----1-1-|-------3-|--------3---|
    G|---2-----|---2-----|-----1-1-|------------|
    D|-0-------|---------|---2-----|------------|
    A|---------|-0-------|-2-------|------------|
    E|---------|---------|---------|------------|
    
    Chorus:
    D,…
  • TUNING: drop D (D,a,d,g,b,e)
    
    
    INTRO: no hammer on's    build this part up so you can break out in the chorus part 
    by slightly moving the volume upon your guitaror palm muting
        E|---------------------------------------------------|…
  • Standard tuning.
    
    The beginning goes like this...
                 3X                           1X
         |--------------------|------------------------|
         |--------------------|------------------------|
         |-444----------------|---444---4--------------|…
  • Intro
     
    (this part may not be completely correct as its hard to hear properly)
             
    -------------------------
    -------------------------
    -----4-4-----------------
    -----0-0--6-p-5----6-----
    -----x-x--4---4-4-4-4----
    ---3-3-3--4---4----------
    
    pre…
  • Intro
    
    e|----------------------------|-----------------------------|
    B|----------------------------|-----------------------------|
    G|----------------------------|-----------------------------|
    D|--------------------------0-|-------7---6----7---6--------|
    A|-------7-----7b----------5--|-----7---7----7---7----7---7-|
    E|-0--0-----0-----5--4--4-----|-0-----------------------4---|…
  • TUNING: (E,A,D,G,B,E)
    
    INTRO/VERSE: (rhythm is very tricky)
    
        E|-4/5-5-xx-5-x-5-xx-5-5-x-5555-4-xx-4/5-5-x-8x8P5-5-5555-4-|
        B|-4/5-5-xx-5-x-5-xx-5-5-x-5555-4-xx-4/5-5-x-8x8P5-5-5555-4-|
        G|-4/5-5-xx-5-x-5-xx-5-5-x-5555-4-xx-4/5-5-x-8x8P5-5-5555-4-|…
  • Main:
    
    e-------0--------------------------------------------------
    B-------0--------------------------------------------------
    G-----------2/-4---4/-7---7/-9bp(10)--7-7------------------
    D-----------2/-4---4/-7---7/-9bp(10)--7-7------------------
    A----0-----------------------------------------------------
    D---0------------------------------------------------------…
  • Intro/verse
    
    ------5-5-5-5----3----------------5-5-5-5----3-------------------------|
    ------0-0-0-0----0----------------0-0-0-0----0-------------------------|
    ------5-5-5-5----5-1--------------5-5-5-5----5-------------------------|
    --------5-5-5------2--0-------------5-5-5-------5-0--------------------|
    ----0---------0-3--2------------0---------0-3---3---3------------------|
    --0----------------------1-1-0------------------------1p0--------------|
    
    
    pre…
  • Riff A
    
    Repeat 3 times     Then this
    e|----------------|-------------------------
    B|----------------|-------------------------
    G|----------------|-------------------------
    D|----------------|-------------------------
    A|----------------|-----------10------------
    D|-9/10-9---7h9p7-|--9/10-9-9---------------
    
    Pre…
  • ---------------------------------------------------------
    -------------------------------------------------7-7-7-7-
    -------------------------------------------------x-x-x-x-
    -7-5-x-x-4-4-7-7-5-4-4-4-4-x-7-5-x-x-4-4-7-7-5-x-4-4-4-4-
    -7-5-x-x-4-4-7-7-5-4-4-4-4-x-7-5-x-x-4-4-7-7-5-x---------
    -5-3-x-x-2-2-5-5-3-2-2-2-2-x-5-3-x-x-2-2-5-5-3-x---------
    
    ---------------------------------------------------------
    ---------------------------------------------------------
    ---------------------------------------------------------
    -7-5-x-x-4-4-7-7-5-4-4-4-4-x-7-5-x-x-4-4-7-7-5-x-5-5-----
    -7-5-x-x-4-4-7-7-5-4-4-4-4-x-7-5-x-x-4-4-7-7-5-x-5-5-----
    -5-3-x-x-2-2-5-5-3-2-2-2-2-x-5-3-x-x-2-2-5-5-3-x---------
    
    ---------------------------------------------------------
    ------------------------------------------------7--------
    --------6----------------------6----------------x--------
    -7-5--x-6-7--7-5-x-4/5--7-5--x-6-7--7-5-x-x-x-x-4--------
    -7-5--x-4-7--7-5-x-4/5--7-5--x-4-7--7-5-x-x-x-x----------
    -5-3--x---5--5-3-x-2/3--5-3--x---5--5-3-x-x…
  • Riff 1
    wah-wah pedal 
    
    e 5  5  4/5  8 5     5   5    5              5     5
    b 6  6  5/6  9 6     6 5 6    6     3 1 3p1  6 5p3 6   5
    g                          5b   5p3                    3
    d
    a
    e
    
    bridge 1
    
    e…
  • Standard tuning (e,a,d,g,b,e)
    
    Intro
    e|---------------/-----------------------------
    B|---------------/-----------------------------
    G|-0-0-0-0-0-0-0-/-0-0-0-0-0-0-0-0-0-0-0-0-0-0-
    D|-5-5-5-5-5-5-5-/-3-5-5-5-7-8-8-0-1-1-1-1-1-1-
    A|---------------/-----------------------------
    E|---------------/-----------------------------…
  • Tuning: Drop D (DADGBE)
     
    INTRO
    (This part there is hardly no guitar just drum and bass. 
    The guitar is a single note that you hear in the background)
    
    clean 
          Let Ring............
    E-----------------------------------------------------------------
    B----11-----------------------------------------------------------
    G-----------------------------------------------------------------
    D-----------------------------------------------------------------
    A-----------------------------------------------------------------
    D-----------------------------------------------------------------…
  • Verse/chorus
    
    -------------3-------
    ---------1---4-------
    ----0-1-0----5-------
    ---2-2-2-----6-------
    --3------------------
    ---------------------
    
    'and i wouldn't change a thing...'
    
    -------------9-------
    ----------9----------
    -------6-8-10--------
    ----1-3--------------
    ---4-----------------
    --2------------------
    
    solo…
  • Starts with strumming of:
    
    -------------------------|
    -------------------------|
    -----7-------------------|
    -----7-------------------|
    -----5-------------------|
    -------------------------|
    
    intro riff
    
    ------------------------------------------------------|
    ------------------------------------------------------|
    ------------------------------------------------------|
    --------------------0-0-------------------------------|
    --0-0---------0-0---------0-0---------0-0-----4-4-----|
    ------0-2-0-0----0-2----0-----0-2-0-0-----0-2-----0---|…
  • Main riff
    
    -----------------------------------------------------------|
    -------------------------------------------0-0-------------|
    -------------------------------------------2-1-------------|
    -------------------4------------2----------2-2----6--------|
    -------4---4---------4----0h2h4---4-2-0-2--0-0--0h4--------|
    ---0-4---4---4--0-4----0-----------------------------------|
    
    fast…
  • Verse
    
    ---------------------------------------------------------------
    ---------------------------------------------------------------
    -------------0---------------0--------------0---------------4--
    ---2-2-0-2----2----2-2-0-2----2---2-2-2-2----2---2-2-2-2----5--
    ---3-3-3-3-3---3---3-3-3-3-3---3--0-0-0-0-0---0--0-0-0-0-0--x--
    ------------------------------------------------------------3--
    
    chorus
    
    -5---------5----------
    -5---------5----------
    -5--4------5--4-3-4---
    -3--5------3--5-3-5---
    ----5---------5-1-5---
    ----3--0h1----3---3---
    
    verse,…
  • e-5--5-5-5-5-x-x-x-5--5-5-5-5-xxx-7x7x7---
    b-6--6-6-6-6-x-x-x-6--6-6-6-6-xxx-8x8x8---
    g-5--5-5-5-5-x-x-x-5--5-5-5-5-xxx-7x7x7---
    d-----------------------------------------
    a-----------------------------------------
    e-----------------------------------------
    
    
    pre…
  • 0:00/intro/clean
    
    e---24/////////////////---
    b-------------------------
    g-------------------------
    d-------------------------
    a-------------------------
    e-------------------------
    
    0:02/main riff/clean
    
    e------------------------------------16-x-16/////-----
    b------------------8^----------------17-x-17/////-----
    g---9-x-x-x-7-x-xx----9-x-x-x-7-x-xx------------------
    d-----------8-----------------8-----------------------
    a-----------------------------------------------------
    e-----------------------------------------------------
    
    0:24/riff…
  • Intro
       X4
    e|---------------------------------------0---0--0--0--0--0---0---0---0---0--0-|
    b|---------------------------------------0---0--0--0--0--0---0---0---0---0--0-|
    G|---------------6---4-------------------11--11-11-11-11-11--11--11--11--11-11|
    D|-------0h4-5-0---7---5-----5---------0-0---0--0--0--0--0---0---0---0---0--0-|
    A|-----4-----------------5h7---5-----9---9---9--9--9--9--9---9---9---9---9--9-|
    E|-0h5---------------------------5-7-----7---7--7--7--7--7---7---7---7---7--7-|
    
    
    e|-----------------------------0---0--0--0--0--0---0---0---0---0--0--
    B|-----------------------------0---0--0--0--0--0---0---0---0---0--0--
    G|-1--1-1-1-1-1--1--1--1--1-1--11--11-11-11-11-11--11--11--11--11-11-
    D|-2--2-2-2-2-2--2--2--2--2-2--0---0--0--0--0--0---0---0---0---0--0--
    A|-2--2-2-2-2-2--2--2--2--2-2--9---9--9--9--9--9---9---9---9---9--9--
    E|-0--0-0-0-0-0--0--0--0--0-0--7---7--7--7--7--7---7---7---7---7--7--…
  • Intro/verse
    
    ---------------------------------|
    ----0-------------0--------------|
    ------2-------------2-------0----|
    --0----------3--0-------3-3------|
    ---------------------------------|
    ---------1-1----------1----------|
    
    'please…
  • E--11h13--11--9h11--6--6h8-------11h13--11--9h11--7--7h9--
    A--11h13--11--9h11--6--6h8-------11h13--11--9h11--7--7h9--
    D---------------------------------------------------------
    G---------------------------------------------------------
    B---------------------------------------------------------
    E---------------------------------------------------------
    
    E--11h13--9h11--7h9--4h6-----------------
    A--11h13--9h11--7h9--4h6-----------------
    D----------------------------------------
    G----------------------------------------
    B----------------------------------------
    E----------------------------------------…
  • Intro
    |--|-------------------------------------------------------------------
    |--|-------------------------------------------------------------------
    |--|-------------------------------------------------------------------
    |--|-2-2-2-5-5-5-5-5-2-2-2-5-5-5-5-5--5-5-x-5-5------------------------
    |--|-2-2-2-3-3-3-3-3-2-2-2-3-3-3-3-3--3-3-x-3-3-x-5-5-x-5-5------------
    |--|-0-0-0-----------0-0-0----------------x-----x-3-3-x-3-3------------
    
    
    -----------------------------------------------------------------------
    -----------------------------------------------------------------------
    -----------------------------------------------------------------------
    -2-2-2-5-5-5-5-5-2-2-2-5-5-5-5-5-4444-2222-----------------------------
    -2-2-2-3-3-3-3-3-2-2-2-3-3-3-3-3-2222-0000-5555-3333-------------------
    -0-0-0-----------0-0-0---------------------3333-1111-------------------
    
    Verse
    -----------------------------------------------------------------------
    ----------------------------------------------------------------13-----
    -7h9-9-9------------------0---------------7h9-9-9---------------15^----
    -----------------------------------------------------------------------
    -----------------------------------------------------------------------
    -----------------------------------------------------------------------…
  • Standard Tuning
    
    Intro:
    (start with drums)
    now the intro gets louder and louder each time it is played till its 
    full on distortion.
    (light distortion)
    e:-----------------
    B:-----------------
    G:-----------------
    D:-----------------…
  • This is just the solo between 2:02 and 2:40.
    
    
    2:02 (overdrive)
    E|--15-15--17-17---17-15--15-14--15-14--14--14----------
    B|------------------------------------------------------
    G|------------------------------------------------------
    D|------------------------------------------------------
    A|------------------------------------------------------
    E|------------------------------------------------------
    
    E|--17-----17------------15-----------------------------
    B|-----17------17-----------17----------14h15p14----14--
    G|-----------------14----------14---16-----------16-----
    D|------------------------------------------------------
    A|------------------------------------------------------
    E|------------------------------------------------------
    
    E|------------------------------------------------------
    B|------------------------------------------------------
    G|--17-16-15-14-13-12----12---/14-----------------------
    D|--------------------14----14--------------------------
    A|------------------------------------------------------
    E|------------------------------------------------------
    
    
    2:10
    E|------------------------------------------------------
    B|----------------14^-12----12-12---12------------------
    G|--14p12--14p12---------14------------14---------------
    D|----------------------------------------14------------
    A|-------------------------------------------12---------
    E|------------------------------------------------------
    
    E|--------------------------19-15-----------------------
    B|--------------------------------17-15-14--------------
    G|-----------------------------------------16-14--------
    D|------------------------------------------------------
    A|--12-/-14--12-1210----------------------------------
    E|------------------------------------------------------
    
    E|--19-15---------------------------15-19-17-15---------
    B|--------17-15-14---------------------------14---------
    G|------------------14/1614/16/14----------------------
    D|------------------------------------------------------
    A|------------------------------------------------------
    E|------------------------------------------------------
    
    
    2:22…
  • INTRO
    e|----------------------|
    b|----------------------|
    g|----------------------|
    d|----------------------|
    a|765--5-------------7--|
    e|---7---76536535p3p0---|
    This part is played up an octave later on in the song.
    
    THAT…
  • Drop D Tuning
    
    Intro
    ~~~~~
    E------
    B------
    G------ Repeat 13 times
    D------
    A------
    D--0-0-
    PM - -
    
    Intro (Guitar 2)/Main Riff
    
    E-------------
    B-------------
    G------4----4- Play after the 5th time 
    D--0-3----3--- of Guitar…
  • Intro. /Chorus (distortion)
    e|----------------------------------------|----------------------------|
    B|----------------------------------------|----------------------------|
    G|-10-10-10--10-10-10--10-10-10--10-10-10-|-6-6-6--6-6-6--6-6-6--6-6-6-|
    D|-10-10-10--10-10-10--10-10-10--10-10-10-|-6-6-6--6-6-6--6-6-6--6-6-6-|
    A|--8--8--8—-—8—-8--8---8--8--8---8--8-—8-|-4-4-4--4-4-4--4-4-4--4-4-4-|
    E|----------------------------------------|-4-4-4--4-4-4—-4-4-4--4-4-4-|…
  • Verse
    
    -----------------------------------------------
    ------------7-7-7--------7-7-7-----------------
    ---6-6------x-x-x-6--6---x-x-x-6---------------
    ---x-6------4-4-4-x--6---4-4-4-x-7---------2---
    ---4--------------4------------4-7---------2---
    ----(b)--0----------(b)-0--------5---------0---…
  • Intro PT1   (Verse)
    e|-----------------------------------------------|
    B|-----------------------------------------------|
    G|-----------------------------------------------|
    D|-6-6-6-6-6--5-5-5-5-5--6-6-6-6-6--3--3--3------|
    A|-6-6-6-6-6--5-5-5-5-5--6-6-6-6-6--3--3--3------|
    E|-4-4-4-4-4--3-3-3-3-3--4-4-4-4-4--1--1--1------|
    
    Repeat…
  • Intro
    G -------------------------------------------------------------------------------
    D -------------------------------------------------------------------------------
    A --7-7-5--7--7-7-5--7--7-7-5--7-----------5--5--7-7-5--7-9---------------------
    E…
  • |---------------------------------------------------------------------------------------------
    |---------------------------------------------------------------------------------------------
    |-11---~~~---9b11b9--------9h11p9p7---7h9-7--------------7---7h9/11-----9--7-7----------------
    |-----------------------------------9---------9-7-9--------9--------------------9--7-9--7-9---
    |---------------------------------------------------------------------------------------------
    |---------------------------------------------------------------------------------------------
    
    |-10p9----------------9-10p9----------------9-10-10-9-9-12-12-9-9-10p9----------------9---10--
    |------10----------10--------10----------10----------------------------10----------10---------
    |---------11----11--------------11----11----------------------------------11----11------------
    |------------12--------------------12----------------------------------------12---------------
    |---------------------------------------------------------------------------------------------
    |---------------------------------------------------------------------------------------------
    
    |-1012---10-12---9--10p9----------------------------------------12p9----12---12p9----12p9----
    |-------------------------/12-----10h12-9-10------------------10------10-----------10------10-
    |--------------------------------------------7---9p7-9/11-------------------------------------
    |---------------------------------------------------------------------------------------------
    |---------------------------------------------------------------------------------------------
    |---------------------------------------------------------------------------------------------
    
    |-12---12p9---12/14-14-14-14---10-10-12-12-9-9-10-10-------9-9--------------------------------
    |----------------------------------------------------12-12-----9-9b-----b9----9---------------
    |--------------------------------------------------------------------------11---11~~-9~~-7-9~~
    |---------------------------------------------------------------------------------------------
    |---------------------------------------------------------------------------------------------
    |---------------------------------------------------------------------------------------------…
  • So, lets drop our guitars to D. 
    
    INTRO (and other parts of the song):
    
    e|--4/5--4/5--4/5--0--0-0--3--3--8------------------------|
    B|--4/5--4/5--4/5--0--0-0--3--3--8------------------------|
    G|--4/5--4/5--4/5--0--0-0--3--3--8------------------------|
    d|--4/5--4/5--4/5--0--0-0--3--3--8------------------------|
    A|--4/5--4/5--4/5--0--0-0--3--3--8------------------------|
    D|--4/5--4/5--4/5--0--0-0--3--3--8------------------------|
    
    VERSES:…
  • Tuning: Drop-D
    
    [Intro]
    e|-9--9--9--9--12--12--9--12--12--9----------------------------------------|
    B|-9--9--9--9--12--12--9--12--12--9----------------------------------------|
    G|-------------------------------------------------------------------------|
    D|-------------------------------------------------------------------------|
    A|-------------------------------------------------------------------------|
    E|-------------------------------------------------------------------------|
    
    
    [Verse]…
  • Intro & Chorus (2x)
    
    e|-----------------------------------------------------|
    B|-----------------------------------------------------|
    G|--7-7--8--5---7---7--8--5----------------------------|
    D|--7-7--8--5---7---7--8--5--7--7-7--5--8--8--x-x------|
    A|--5-5--6--3---5---5--6--3--7--7-7--5--8--8--x-x------|
    E|--5-5--6--3---5---5--6--3--5--5-5--3--6--6--x-x------|
    
    
    Verse…
  • Chorus/pre verse
    
    ------------------------------------------------------------------------0-----|
    ------------------------------------------------------------------------------|
    ----------------2--------------------0----------------2--------------2-3-3-2--|
    --1---4-1-4------5---1---4-1-4----2-4---1---4-1-4------5---1---4-1-4----------|
    --0---3-0-3--3-4--4--0---3-0-3-3-4------0---3-0-3--3-4--4--0---3-0-3----------|
    ----2------------------2-----------------2-------------------2----------------|…
  • Intro
    -7-------7--
    --7------7--
    ---7-----7--
    ----0----0--
    ------------
    ------------
    
    Verse 
    -3-3-xxxxxxx------
    -3-3-xxxxxxx------
    -3-3-xxxxxxx------
    ------------------
    ------------------
    ------------------
    
    Chorus
    ------------------------…
  • Intro/Verse  -Phaser w/ light distortion-
    ------------------------------------------------------------------------------
    ------------------------------------------------------------------------------
    ------------------------------------------------------------------------------
    ------------------------------------------------------------------------------
    -7-7-----3h5------------------------------------------------------------------
    -----0-0------0-0-------------------------------------------------------------
    (Corrected…
  • Standard tuning 
    
    Intro 
    e|------------------------------------------- 
    B|-------------------------------------------
    G|-------------------------------------------
    D|------------------------------------------- 
    A|--5-3-2-3-2h3p2p0-2-2--2-2-0--2-2-2-2-3-3--…
  • TUNING: Standard (E, B, G, D, A, E)
    
         Riff 1: w/ wah
        E|-7----------5----------|
        B|-7----------5----------|
        G|-8-x-x-x-x--6--x-x-x-x-|
        D|-9-x-x-x-x--7--x-x-x-x-|
        A|-9-x-x-x-x--7--x-x-x-x-|
        E|-7----------5----------|…
  • Verse
    
    ------9------
    -------------
    ---7---------
    --9-9--------
    -------------
    -------------
    
    chorus
    
    --------------------------------------------------------
    --------------------------------------------------------
    ----0------0------0-0-0----0------0---------------------
    ---6-6-6--6-6-6--6-6-6-6--6-6-6--6-6-6----6-6-77777777--
    ---------7---7------------------7---7---------77777777--
    --9---9---------5--------9---9---------5-5-5--55555555--
    
    'the…
  • Intro/verse
    
    ----------------------------------------------------|
    ----------------------------------------------------|
    ----0--4-0-------0--4-0-----------------------------|
    ---2-2-5---5----2-2-5-----0-------------------------|
    --3----6----6--3----6---1---------------------------|
    ----------------------------------------------------|
    
    chorus…
Наверх