Аккорды Infant Sorrow - Inside Of You

Добавлено: @romashka
Дата добавления: 15 Апреля 2022г.
Рейтинг:
0.0
Просмотров: 32
Транспонировать - +
STRUMMING
There is no strumming pattern for this song yet. Create and get +5 IQ
FROM THE MOVIE: "Forgetting Sarah Marshall"
 
[Intro] (by phelvie and minor fix by me)
 
e|-------------------------|----------------------|
B|--------3----------------|--------3-------------|
G|-----2-----2-------0--2--|-----2-----2-------0--| x2
D|--0-------------0--------|--0-------------0-----|
A|-------------------------|----------------------|
E|-------------------------|----------------------|
 
 
[Verse 1]
         D
Old as Ancient Skies
               A
I've had these wandering eyes
         G              A
But you took me by surprise
                  D
When you let me inside of you
 
G    D
   Inside of you
   A
Inside of you
         G
There's got to be
      A
Some part of me
  Bm
Inside of you
 
(Chorus: D Riff)
 
e|--2----3--2----2--3--2--3--2--|
B|--3----3--3----3--3--3--3--3--|
G|--2----2--2----2--2--2--2--2--|
D|--0---------------------------|
A|------------------------------|
E|------------------------------|
 
[Chorus]
   G                   A                      D
Inside of you, I could cross this desert plane
   G                  A                      D
Inside of you, I can hear you scream my name
   G                      A
Inside of you, while the stars unfold
       G                        A
I've crossed me heart and I've crossed the world
       G                  A
And I need you here and I need to be
  D            G D
Inside of you
 
[Verse 2]
 G        D
  Now the flowers bloom
                 A
I feel you creep into my room
        G                 A
And if this should be our tune
                D
I'll die here inside of you
 
G        D
 And the world explodes
                A
I've never been down this road
 G              A
Teach me how to glow
 
While I'm moving
  D
Inside of you
 
[Chorus]
   G               A                         D
Inside of you, the restless find their dreams
   G                A                       D
Inside of you, this king has found his queen
   G                   A
Inside of you, all the stars unfold
      G                        A
I've crossed me heart and I've crossed the world
       G                  A
And I need you here and I need to be
  Bm
Inside of you
 
[Solo]
D A Bm A
 
e|---------------------------------------------------------|
B|------------10----------------------7--8--7--------------|
G|--7--9--11--------7--9--11--9--7-------------9--7--6-----|
D|------------------------------------------------------7--|
A|---------------------------------------------------------|
E|---------------------------------------------------------|
 
[Verse 3]
  D
Inside of you
A
Bay blue
    G
So say it's you
   A
To thoughts untrue
D
Who I woo
A
It's you I woo
 
 G
Through and through
    A
And through and through
         G                A
There's so much more than just a screw
  D
Inside of you
 
[Outro]
 G             D
  And I was blizzard blind
               A
Delt like I've lost me mind
            G            A
But you've treated me so kind
              D
I don't know what to do. 
Наверх