Аккорды «Injected»

Популярные аккорды Injected:
алфавиту | просмотрам | случайно
  • Standard E Tuning
    
    E---------------------------|
    B---------------------------|
    G------------------8-10-12~-|
    D-777-555-3~-3/15-8-10-12~-|
    A-777-555-3~-3/15-8-10-12~-|
    E-777-555-3~-3/15----------|
    
    This sounds pretty close…
  • Drop D tuning
    
    Intro
    
    Guitar 1
    e|-----------------------------------------------------------|
    B|-----------------------------------------------------------|
    G|-----------------------------------------------------------|
    D|-3-x--1-1-x-1-1-x--3-3-x-3-3-x-3-3-x—-E...-----------------|
    A|-3-x--1-1-x-1-1-x--3-3-x-3-3-x-3-3-x—-T...-----------------|
    E|-3-x--1-1-x-1-1-x--3-3-x-3-3-x-3-3-x—-C...-----------------|
    
    Guitar…
  • Drop D
    + sign underneath note means palm mute.
    
    Intro (play once)
    -------------------------------------|---------------------------
    -------------------------------------|---------------------------
    -------------------------------------|---------------------------
    --0--3-3---0--3-3---0--3-3---0--3-3--|---5--7--5--4--5--4--0-----
    --0--3-3---0--3-3---0--3-3---0--3-3--|---5--7--5--4--5--4--0-----
    --0--3-3---0--3-3---0--3-3---0--3-3--|---5--7--5--4--5--4--0-----
    
    
    Verse…
  • Tuning: Standard E
    
    *=Harmonics
    / or =Slide
    b=Bend
    ( )=Palm Mute
    ~=Sustain (Let the note ring out)
    
    Intro
     
    E-----]
    B-----]
    G-----]
    D-1/5-]
    A-1/5-]
    E-1/5-]
    Play Once and go directly to the music below.
    
    E-----------------]
    B-----------------]
    G-----------------]
    D-5-5-5-5-7-5-7-5-]
    A-5-5-5-5-7-5-7-5-]
    E-5-5-5-5-7-5-7-5-]
    Repeat…
  • drop D tuning
    
    intro/outro
    ----------------------------|
    ----------------------------|
    ----------------------------|
    ----------------------------|
    -----3---5-3-1--------------|
    -3-3---3-------1------------|
    
    
    verse(i know…
  • DROP D
    
    Into and Chorus Riff (Repeat)
    ------------------------------|--------------------------|----------------
    ------------------------------|--------------------------|----------------
    ------------------------------|--------------------------|----------------
    ------------------------------|--------------------------|----------------
    ---------5-3------5-3---3-----|-----5-2------5-2--2------|-----5-1-----5-1
    --0--0-4------0-4---------4-0-|-0-4------0-4--------4-0--|-0-4-----0-4----
    
    
    ------------------------------------|---------
    ------------------------------------|---------
    ------------------------------------|---------
    -----------0-0-3-4-0-3-4-0-3-4-0-5-4|---------
    --1--------0-0-3-4-0-3-4-0-3-4-0-3-4|---------
    ----4--0---0-0-3-4-0-3-4-0-3-4-0---4|---------
    
    
    
    Verse…
Наверх