Аккорды Ink street 101 - Аддиктол

Добавлено: @romashka
Дата добавления: 02 Августа 2022г.
Рейтинг:
0.0
Просмотров: 39
Транспонировать - +
Это очередной хит про любовь
Ink street 101
Слушайте и убивайтесь

    Am
Мне нужен аддиктол
         F          E
Ведь я зависим от тебя
  Am 
Похоже, что я так и сдохну
F         E
Погубив себя
  Am      
Я не могу и ночи спать
    F         E
Без мысли о тебе
    Am        
Без сна я вынужден страдать
   F             E
Но ты есть и во сне

[Проигрыш]:

e ------------------------------------------------|
B ----------------------------1--1--1--3--0--0--0-|
G -0--2--2--2--0--2--2--2--0----------------------|
D ------------------------------------------------|
A ------------------------------------------------|
E ------------------------------------------------|
                                                    x2
e ------------------------------------------------|
B ------------------------------------------------|
G -0--2--2--2--0--2--2--2--0-----------0----------|
D ----------------------------3--3--3-----2--2--2-|
A ------------------------------------------------|
E ------------------------------------------------|

Am 
Как тебя забыть?
      F            E
Хоть кто-нибудь сказал
Am
Как без тебя жить?
  F         E
Ответа не видал
    Am
Не знаю, что со мной
   F             E
Но я словно во тьме
  Am
Я будто сам не свой
      F             E
Пусть всё горит в огне

Слушай, да...
Бля, я уже давно её забыл
Типа... я понял, что это бессмысленно
Ну, собственно, и выкинул её из своей головы

    Am
Мне нужен аддиктол
         F          E
Ведь я зависим от тебя
  Am 
Похоже, что я так и сдохну
F         E
Погубив себя
  Am      
Я не могу и ночи спать
    F         E
Без мысли о тебе
    Am        
Без сна я вынужден страдать
   F             E
Но ты есть и во сне

Снова проигрыш

Am
Выпил алкоголь
 F        E
Стало веселей
    Am
Но снова эта боль
  F           E
И мысли все о ней
    Am
Не знаю, что со мной
   F             E
Но я словно во тьме
  Am     
Я будто сам не свой
       F            E
Пусть всё горит в огне

Блять, знаешь, да...
Нахуй это всё дерьмо ебучее, блять
Я хочу просто... встать на крышу
И застрелиться нахуй

    Am
Мне нужен аддиктол
         F          E
Ведь я зависим от тебя
  Am 
Похоже, что я так и сдохну
F         E
Погубив себя
  Am      
Я не могу и ночи спать
    F         E
Без мысли о тебе
    Am        
Без сна я вынужден страдать
   F             E
Но ты есть и во сне

Под конец снова проигрыш 
Наверх