Аккорды Иван Вопилов - Маяк

Добавлено: @romashka
Дата добавления: 28 Апреля 2021г.
Рейтинг:
0.0
Просмотров: 74
Транспонировать - +
Во вступлении паттерн звучит 4 раза.
Потом в куплете 4 раза подряд.

E|----------------------------------------|
B|----------------------------------------|
G|----0---0----0--0-----0---0-----0--0----| 
D|---4-4---4--4-4--4---4-4---4---4-4--4---| 
A|--5---5----5---5----5---5-----5---5-----|
E|-3--------3--------0---------0----------|

E|-----------3----------------2---2-3-----3-2------|
B|----0-1--1--1--1-0-1-----3----3-----3-------3----|
G|---0----0----0------0---2-2--2--------2------2---|
D|--2----2-------------2-0----------0-----------0--|
A|-0-----------------------------------------------|
E|-------------------------------------------------|

E|--------3----------------3-----------------0-----------|
B|----3-------3--------3-------3-------0---0---0---------|
G|--0---0---0---0----0---0---0---0----0---0-----0-----0--|
D|-----------------------------------2---2-------2---2---|
A|----------------------------------2---------------2----|
E|-3---------------2---------------0---------------0-----|

E|-----------3----------------2---2-3-----3-2------|
B|----0-1--1--1--1-0-1-----3----3-----3-------3----|
G|---0----0----0------0---2-2--2--------2------2---|
D|--2----2-------------2-0----------0-----------0--|
A|-0-----------------------------------------------|
E|-------------------------------------------------|

E|--------3----------------3-----------------0-----------|
B|----3-------3--------3-------3-------0---0---0---------|
G|--0---0---0---0----0---0---0---0----0---0-----0-----0--|
D|-----------------------------------2---2-------2---2---|
A|----------------------------------2---------------2----|
E|-3---------------2---------------0---------------0-----|

E|-----------3----------------2---2-3-----3-2------|
B|----0-1--1--1--1-0-1-----3----3-----3-------3----|
G|---0----0----0------0---2-2--2--------2------2---|
D|--2----2-------------2-0----------0-----------0--|
A|-0-----------------------------------------------|
E|-------------------------------------------------|


E|---------3---------------3----------------3---------------3---------|
B|-----3-------3-------3-------3--------3-------3-------3-------3-----|
G|---0---0---0---0---0---0---0---0----0---0---0---0---0---0---0---0---|
D|--------------------------------------------------------------------|
A|--------------------------------------------------------------------|
E|-3---------------3----------------3---------------3-----------------|

Листая страницы солёной морской воды
На тёмном холме неподвижно стоит маяк
А дальше за мысом из горной тугой гряды
В ночной тишине заблудившись не спит моряк

Утренний ветер рассеет густой туман
Найдёт он причал и гавань найдёт свою
Но глаз не смыкает всю ночь молодой капитан
Столь верный морям и своему кораблю

Пусть якорь спасительный груз на стальной цепи

G      (Здесь вступает бой) 
Спи... 

   G                         Em
Игривые волны нежно ласкают борт
    G                                Em
На палубе тихо, не видно ни звёзд, ни Луны
 G                              Em
Ветер по мачтам пройдя, сыграет аккорд
    G                              Em
Он так одинок над бездной морской глубины 

   Am7                              D
Но он так настойчиво будет искать свой маяк,
   G                                Em
Доверив компасу прокладывать свой маршрут.
   Am7                              D
И глаз не смыкая, он будет всю ночь стоять, 
     G                              Em
Он знает, маяк точно есть и его там ждут. 
  Am7                        D
И даже если туман занавесил путь - 
G
Будь!...

Песня играется перебором, представленным в табах. Перед вторым куплетом (на слове "Спи!) вступает бой. В принципе, можно и всю песню играть перебором. Или разложить на две гитары, чтоб одна играла перебор, другая - бой.
Наверх