Аккорды «Jack Off Jill»

Jack Off Jill
Стиль Jack Off Jill можно охарактеризовать как смесь альтернативы, панка и готического рока. Группа образовалась в 1992 году во Флориде. В её первый состав входили Джессика Фодера (вокал, тексты), Тенни Арсланян (барабаны), Робин Малдер (бас-гитара, клавишные) и Мишель Оливер (гитара). За восемь лет, которые просуществовала группа, в её составе побывали двенадцать участников, среди которых Скотт Путески, гитарист и один из основателей группы Marilyn Manson, вместе с которой Jack Off Jill неоднократно… Читать полностью... Стиль Jack Off Jill можно охарактеризовать как смесь альтернативы, панка и готического рока. Группа образовалась в 1992 году во Флориде. В её первый состав входили Джессика Фодера (вокал, тексты), Тенни Арсланян (барабаны), Робин Малдер (бас-гитара, клавишные) и Мишель Оливер (гитара). За восемь лет, которые просуществовала группа, в её составе побывали двенадцать участников, среди которых Скотт Путески, гитарист и один из основателей группы Marilyn Manson, вместе с которой Jack Off Jill неоднократно выступали. Так же как и Брайан Уорнер сотоварищи, команда известна своими скандальными, провокационными шоу. Стоит добавить, что Jack Off Jill часто связывают с движением riot grrl ("бунтующие девушки"), в которое входило множество феминистически настроенных женских панк-групп. Скрыть...
Популярные аккорды Jack Off Jill:
алфавиту | просмотрам | случайно
  • |-------------------------------------------|
    |-------------------------------------------|
    |-------------------------------------------|
    |9--9--9--9--9--9--9-9-9--9--9--9--9--9--9-9|
    |-12-12/11-11/10-10-9-9-12-12/11-11/10-10-9-9|
    |-------------------------------------------|
    
    |--------------------------------|
    |--------------------------------|
    |--------------------------------|
    |9--9--9--9--9--9--9-9|
    |-12-12/11-11/10-10-9-9|
    |--------------------------------|
    
    Repeat…
  • e----------
    B----------
    G--5---6---
    D--5---6---
    A--3---4---
    E----------
      Entire song
  • e----------------------------
    B----------------------------
    G-------4-5-6-6-6------------
    D--6-6--4-5-6-6-6--4-4-3-2---
    A--6-6--2-3-4-4-4--4-4-3-2---
    E--4-4-------------2-2-1-0---
       Chorus
    
    
  • G------------
    D------------
    A------------
    E--5--4--7---
      Verse
    
    G---------------
    D---------------
    A--3--4--3--1---
    E---------------
      Bridge (two different rhythms..figure them out.)
  • Distortion on
    standard tuning
    
    Verse
    
    |------------------------------------|
    |------------------------------------|
    |------------------------------------|
    |-3-33-xxx-5-55-xxx-6-66-xxx-8-88-653|
    |-3-33-xxx-5-55-xxx-6-66-xxx-8-88-653|
    |-1-11-xxx-3-33-xxx-4-44-xxx-6-66-431|
    
    Chorus
    
    |----------------------------|
    |----------------------------|
    |3-3-3336-6-666--------------|
    |3-3-3336-6-6666-6-6663-3-333|
    |1-1-1114-4-4446-6-6663-3-333|
    |--------------4-4-4441-1-111|
    
    |-------------------------------|
    |-------------------------------|
    |3-3-3336-6-666--------------655|
    |3-3-3336-6-6666-6-6663-3-333655|
    |1-1-1114-4-4446-6-6663-3-333433|
    |--------------4-4-4445-5-555---|
    
    |----------------------------|
    |----------------------------|
    |3-3-3336-6-666--------------|
    |3-3-3336-6-6666-6-6663-3-333|
    |1-1-1114-4-4446-6-6663-3-333|
    |--------------4-4-4441-1-111|
    
    |-------------------------------|
    |-------------------------------|
    |3-3-3336-6-6668-8-7-87-8-8-7-87|
    |3-3-3336-6-6668-8-7-87-8-8-7-87|
    |1-1-1114-4-4448-8-7-87-8-8-7-87|
    |-------------------------------|
    
    Fill
    
    |-----------------|
    |-----------------|
    |8-8-7-87-8-8-7-87|
    |8-8-7-87-8-8-7-87|
    |8-8-7-87-8-8-7-87|…
  • G-----------------
    D-----------------
    A-----3------4----
    E--3------4-------
      Verse
    
    
    G-----------------
    D-----------------
    A-----3-----------
    E--3------4-------
      Chorus
  • e-----------------------
    B-----------------------
    G----------4--3--4--3---
    D--3---4---4--3--4--3---
    A--3---4---2--1--2--1---
    E--1---2----------------
      Verse
  • e-------5---------8---
    B--2/4-------4/7------
    G---------------------
    D---------------------
    A---------------------
    E---------------------
      Intro [I'm sure you can figure out how this goes.]
    
    e-----------------------------
    B-----------------------------
    G-----------------------------
    D-------2-3-2----2------------
    A--0-0---------3---3-2--2-2---
    E-----------------------------…
  • e-------------------
    B-------------------
    G--8-8-8-8-8-8--7---
    D--8-8-8-8-8-8--7---
    A--6-6-6-6-6-6--5---
    E-------------------
      Intro
    
    e-------------------------------------------------------------
    B-------------------------------------------------------------
    G----------------------------------------------8-8-8-8-8-8-7--
    D--2-------2-----2-2-----2-----2-2-----2-------8-8-8-8-8-8-7--
    A--0-0-3-0-0-3-0-0-0-3-0-0-3-0-0-0-3-0-0-3-0---6-6-6-6-6-6-5--
    E-------------------------------------------------------------…
  • G------------------
    D------------------
    A--5----3p0-3/5---
    E------------------
      Intro / Verse / Outro
    
    G--------------------
    D--------3p 0--------
    A--5--3---------3/5--
    E-------------------- x3
      Chorus
    
    G-----------------
    D-----------------
    A--5--3--3p0-3/5--
    E-----------------…
  • Standard Tuning
    
    Verse
    
    |-------------------------------------|
    |-------------------------------------|
    |57-7-7-757-7-7-757-7-7-757-7-77-88810|
    |57-7-7-757-7-7-757-7-7-757-7-77-88810|
    |35-5-5-535-5-5-535-5-5-535-5-55-666-8|
    |-------------------------------------|
    
    Chorus
    
    |----------------------------------------|
    |----------------------------------------|
    |7-7-77710-10-1010108-8-88811-11-11-11-11|
    |7-7-77710-10-1010108-8-88811-11-11-11-11|
    |5-5-555-8--8--8-8-86-6-666-9--9--9--9--9|
    |----------------------------------------|
    
    |----------------------------------------|
    |----------------------------------------|
    |7-7-77710-10-10-10-106-6-6665-5-558-8-66|
    |7-7-77710-10-10-10-106-6-6665-5-558-8-66|
    |5-5-555-8--8--8--8--84-4-4443-3-336-6-88|
    |----------------------------------------|…
  • e-----------
    B-----------
    G--7--------
    D--7--7--9--
    A--5--7--9--
    E-----5--7--
      Verse
    
    e-----------------
    B-----------------
    G--7-7-7--9-10-9--
    D--7-7-7--9-10-9--
    A--5-5-5--7-8--7--
    E-----------------
      Chorus
    
    e---------------
    B---------------
    G--4--6---7--9--
    D--4--6---7--9--
    A--2--4---5--7--
    E---------------…
  • Verse:
    G------------------------------------
    D------------------------------------
    A-------------------------------2---3
    E--5--8--7--7--1~~~1--0--0----------
    
    Verse Variation (thrown in at various times):
    
    G----------------------------------------
    D-----------------3--3--2----------------
    A--------------------------3--5--7-------
    E--5--8--7--7---------------------------
    
    Chorus:
    G---------------------------------------------
    D---------------------------------------------
    A--------------2-2-2-2-5-5-5-5-8-7-8-/-10-----
    E--0--0--0--0---------------------------------
    
    Bridge:
    G--------------------------------------------------------
    D--------------------------------------------------------
    A-7-7-7-7-7-5-7-7-7-7-7-5-7-7-7-7-7-5-/-8--2-3-2--------
    E--------------------------------------------------------…
  • e----------------------------
    B----------------------------
    G----------------------------
    D----------------------------
    A--2--3--2--3--2--3--2--3----
    E----------------------------
      Intro			  
    
    e-------------------------------------------------
    B-------------------------------------------------
    G-------------------------------------------------
    D------------------2--3-3--2--3-------------------
    A--2--3-3--2--3-3---------------------3-3-3--2-2--
    E--------------------------------3--0-------------…
  • Tuning: Standard
    
    Intro:
    
    e|--------------------------------------------------------------------------|
    B|--------------------------------------------------------------------------|
    G|--6--4--------------------------------------------------------------------|
    D|--6--4--4-----------------------------------------------------------------|
    A|--4--2--4-----------------------------------------------------------------|
    E|--------2-----------------------------------------------------------------|
    
    Chorus:
    
    e|--------------------------------------------------------------------------|
    B|--------------------------------------------------------------------------|
    G|--------------6--------------------------6--4-----------------------------|
    D|----6-6-6-6-6-6--------6-6-6-6-6-4-------6--4--4--------------------------|
    A|----6-6-6-6-6-4--------6-6-6-6-6-4-------4--2--4--------------------------|
    E|----4-4-4-4-4----------4-4-4-4-4-2-------------2--------------------------|
    
    End:
    
    e|--------------------------------------------------------------------------|
    B|--------------------------------------------------------------------------|
    G|---4--6-------------------------------------------------------------------|
    D|---4—-6---4---------------------------------------------------------------|
    A|---2--4---4---------------------------------------------------------------|
    E|----------2---------------------------------------------------------------|
    
    
    |…
  • e--0----3----0----2----
    B--0----3----1----3----
    G--1----0----0----2----
    D--2----0----2----0----
    A--2----2----3---------
    E--0----3--------------
      Verse
    
    e--0----3----5----
    B--0----5----7----
    G--1----5----7----
    D--2----5----7----
    A--2----3----5----
    E--0--------------…
  • G----------------------------------
    D----------------------------------
    A----------7-7---------------------
    E--0--0-0-------7--7-7-7--6-6-5-3--
       Whole song
  • e------------
    B------------
    G--12---10---
    D--12---10---
    A--10---8----
    E------------
      Verse
    
    e-------------------
    B-------------------
    G-------------------
    D--9---6--9--6--7---
    A--9---6--9--6--7---
    E--7---4--7--4--5---	[The…
  • e-----------------
    B-----------------
    G--0-0-0-0-0-0---- [etc.]
    D-----------------
    A-----------------
    E-----------------
      Verse
    
    e---------------
    B---------------
    G-----5--4--7---
    D--7--5--4--7---
    A--7--3--2--5---
    E--5------------…
  • Main Riff:
    G----------------------------------------
    D----------------------------------------
    A-----------0----------------3-------2-3-
    E-5-5-8-7-3---3-3-5-5-7-1-1---0-0-0------
    
    Chorus:
    G------------------------------------------
    D------------------------------------------
    A------------------------------------------
    E-8888888888/10-10-10-10-10/13-13-13-13-13-…
  • e------------------------------
    B------------------------------
    G------------------------------
    D----------8-7-----------8-7---
    A----------8-7-----------8-7---
    E--0--0-0--6-5---0--0-0--6-5---
       Verse
    
    e------------------
    B------------------
    G------------------
    D--9---8---7---5---
    A--9---8---7---5---
    E--7---6---5---3---…
  • After Bass intro
    Guitar 1
    
    00:07
    e-----------------------|
    B-----------------------|
    G-------------------7---|
    D----7-7-7-7-7-7-7--7---|
    A----7-7-7-7-7-7-7--5---|
    E----5-5-5-5-5-5-5------|
       Pm.............
    
    Guitar 2
    Clean…
  • G----------------------------------------
    D----------------------------------------
    A--4-4-4-4-4--6-7-6----4-4-4-4-4--6-7-6--
    E----------------------------------------
      Verse
  • G----------------------------------------------------------------
    D----------------------------------------------------------------
    A-----------------------------------------------------5-5--4-4---
    E--2-2--2-2--2-2--2-2--5-5--4-4---2-2--2-2--2-2--2-2-------------…
  • e--------------
    B--------------
    G--------------
    D--5----7--8---
    A--5----7--8---
    E--3----5--6---
       Verse
    
    e------------------------------
    B------------------------------
    G-----------------------6--5---
    D--x-x-5--x-x-5--x-x-5--6--5---
    A--x-x-5--x-x-5--x-x-5--4--3---
    E--x-x-3--x-x-3--x-x-3---------…
  • e-------------------------------------|------------------------------------
    B-------------------------------------|------------------------------------
    G-------------------9-9-9--8-8--7-7---|------------------------------------
    D-------------------9-9-9--8-8--7-7---|-------------------4-4-4--5-5--7-7--
    A-------------------7-7-7--6-6--5-5---|-------------------4-4-4--5-5--7-7--
    E--0-0-0-0-0-0-0-0--------------------|--0-0-0-0-0-0-0-0--2-2-2--3-3--5-5--…
  • e-----------------------------
    B-----------------------------
    G-----------------------------
    D-----------------------------
    A-----------------------------
    E--6--5--6--5----8--7--8--7---
      Verse
    
    e-----------------------
    B---4----3----6----5----
    G---6^---5^---8^---7^---
    D-----------------------
    A-----------------------
    E-----------------------…
  • e-------------------------------------------
    B--6-6--5-5--------------6-6--5-5-----------
    G------------5-5--4--4-------------5-5-5-5--
    D-------------------------------------------
    A-------------------------------------------
    E-------------------------------------------
    
    e--8-8--7-7--6-6--5-5---8-8--7-7--6-6-6-6---
    B-------------------------------------------
    G-------------------------------------------
    D-------------------------------------------
    A-------------------------------------------
    E-------------------------------------------…
  • Drop D Tuning (D A D G B e)
    Rhythm Figure 1 (Intro):
    
      Ab5                     E5                      Ab5                     E5
    e|-----------|-----------|-----------|-----------|-----------|-----------|-----------|---------|
    B|-----------|-----------|-----------|-----------|-----------|-----------|-----------|---------|
    G|-----------|-----------|-----------|-----------|-----------|-----------|-----------|---------|
    D|6--6-6-6-6-|6--6-6-6-6-|2--2-2-2-2-|2--2-2-2-2-|6--6-6-6-6-|6--6-6-6-6-|2--2-2-2-2-|2--2--2--|
    A|6--6-6-6-6-|6--6-6-6-6-|2--2-2-2-2-|2--2-2-2-2-|6--6-6-6-6-|6--6-6-6-6-|2--2-2-2-2-|2--2--2--|
    D|6--6-6-6-6-|6--6-6-6-6-|2--2-2-2-2-|2--2-2-2-2-|6--6-6-6-6-|6--6-6-6-6-|2--2-2-2-2-|2--2--2--|
    
    
    Rhythm…
  • e--4--7-6---4--7-8--7---
    B--4--9-8---4--7-8--7---
    G--5--9-8---5--8-9--8---
    D--6--9-8---6--9-10-9---
    A--6--7-6---6--9-10-9---
    E--4--------4--7-8--7---
      Verse
    
    e--4--4---
    B--4--4---
    G--5--5---
    D--6--6---
    A--6--6---
    E--4--4---…
  • e--------------------
    B--------------------
    G--8-8--6------------
    D-----------8-8--6---
    A--------------------
    E--------------------
      Verse
    
    
    e-----------------------------
    B-----------------------------
    G-----------------------6-5---
    D--7-8--7-8--7-8--7-8---6-5---
    A--7-8--7-8--7-8--7-8---4-3---
    E--5-6--5-6--5-6--5-6---------…
Наверх