Аккорды «Jawbreaker»

Jawbreaker
'Jawbreaker' - американская панк-рок группа, существовавшая с 1986 по 1996 год и оказавшая большое влияние на возникновение и развитие в начале 90-х годов прошлого века движения эмо. Ведущий вокалист и гитарист Блейк Шварценбах (Blake Schwarzenbach), басист Крис Бауэрмайстер (Chris Bauermeister) и барабанщик Адам Пфалер (Adam Pfahler) организовали группу, когда были студентами в Нью-йоркском Университете (New York University). Бауэрмайстер искал кого-нибудь, вместе с кем он мог бы репетировать… Читать полностью... 'Jawbreaker' - американская панк-рок группа, существовавшая с 1986 по 1996 год и оказавшая большое влияние на возникновение и развитие в начале 90-х годов прошлого века движения эмо. Ведущий вокалист и гитарист Блейк Шварценбах (Blake Schwarzenbach), басист Крис Бауэрмайстер (Chris Bauermeister) и барабанщик Адам Пфалер (Adam Pfahler) организовали группу, когда были студентами в Нью-йоркском Университете (New York University). Бауэрмайстер искал кого-нибудь, вместе с кем он мог бы репетировать и вывесил пару листовок в студенческом общежитии. На его пламенный призыв откликнулись Шварценбах и Пфалер. Затем они перебрались в Лос-Анджелес (Los Angeles), где 16 марта 1989 года в 'Клубе 88' состоялось их первое серьезное шоу. В 1990 году они выпустили свой дебютный альбом 'Unfun' на независимом лейбле 'Shredder Records'. В следующем году музыканты снова переехали, на этот раз в Сан-Франциско (San Francisco), и в 1992 году записали с помощью 'Tupelo Recording Company' и 'The Communion Label' альбом 'Bivouac'. Сила обаяния, харизма Шварценбаха и очень личные, полные горького разочарования тексты его песен сделали из него культовую фигуру американского панк-рока на рубеже 80-х и 90-х. В то же время он перенес хирургическую операцию по удалению из горла болезненных и опасных для голоса полипов. В 1993 году 'Jawbreaker' гастролировали с группой 'Nirvana', а в следующем году выпустили альбом '24 Hour Revenge Therapy', обладавший уже ярко-выраженными чертами стиля эмо, все на том же лейбле 'Tupelo/Communion Records'. Этот альбом привлек внимание крупных лейблов. Группа подписала контракт на один миллион долларов с компанией звукозаписи 'DGC Records', и в 1995 году на свет появился альбом 'Dear You'. Однако новое звучание, ровный вокал и элегантные аранжировки привели к тому, что значительная часть аудитории 'Jawbreaker' отреагировала на альбом негативно. Напряженность в отношениях участников группы все росла и в 1996 году привела к роспуску 'Jawbreaker'. Особенно не ладили Блейк и Крис. Они отправлялись на гастроли в разных фургонах, а однажды просто взбесились и подрались, после того, как басист обозвал вокалиста 'чертовой примадонной'. В последний раз они сыграли вместе 19 мая 1996 года в Capitol Theater в Олимпии, штат Вашингтон (Olympia, Washington). Летом панк-трио официально объявило о завершении совместной работы, хотя Пфалер возражал против роспуска группы. После распада участники 'Jawbreaker' активно участвовали в других проектах. Блейк Шварценбах вернулся в Нью-Йорк (New York City) и какое-то время жил тем, что писал для веб-сайтов обзоры видео-игр. В 1997-м он собрал инди-группу 'Jets to Brazil', которая распалась в 2003-м, выпустив три альбома; в 2008-2009 Шварценбах работал с группой 'The Thorns of Life', которая довольно много гастролировала, но не записала ни одного студийного альбома. В августе 2009 года Блейк распространил информацию о своей новой группе под названием 'Forgetters'. Группа базируется в нью-йоркском Бруклине (Brooklyn, New York). Крис Бауэрмайстер, совершенно, по его словам, опустошенный, вернулся на свою работу в магазин игрушек, где он работал до того, как 'Jawbreaker' начали активно гастролировать. В конце концов, он вернулся к музыкальной карьере, присоединившись к чикагской поп-панк группе 'Horace Pinker'. Он работал с ними с 1999 по 2001 год и записал вместе с 'Пинкерами' их альбом 2000 года 'Copper Regret'. В настоящее время он играет с группой 'Mutoid Men' и живет в штате Вашингтон. Адам Пфалер остался в Сан-Франциско. Вместе с тур-менеджером группы Кристи Колкорд (Christy Colcord) он открыл видео-магазин и продолжал выпускать записанный ранее материал 'Jawbreaker' на своем лейбле 'Blackball Records'. Любопытно, что после распада коллектива интерес аудитории к их творчеству существенно возрос. В 2007 году участники группы ненадолго объединились в студии для съемок документального фильма о 'Jawbreaker', однако слухи об их возможном воссоединении были немедленно опровергнуты всеми тремя экс-'Jawbreaker'. Скрыть...
Популярные аккорды Jawbreaker:
алфавиту | просмотрам | случайно
  • Intro
    (Bass does most of it)
    e-----------------------------------------------
    B-----------------------------------------------
    G-----------------------------------------------    
    D-----------------------------------------------
    A------------------------7--0-------------------
    E-----------------------------------------------
    
    
    After…
  • intro
    
    G|---------------------------------------------------------------
    D|---------------------------------------------------------------
    A|55555555-55555555----------------------------------------------
    E|--------5--------5-00000000-22222222-33333333-55555555-55555555
    
    
    verse
    
    G|--------------------------------------------------------
    D|--------------------------------------------------------
    A|555555-555555-------------------------------------------
    E|------5------5-00000000-22222222-33333333-55-55-55-55-55
    
    G|-------------------------------------------------------------------------
    D|-------------------------------------------------------------------------
    A|555555-555555------------------------------------------------------------
    E|------5------5-00000000-22222222-33333333-55-55-55-55-5555-55-55-55-55-55
    
    
    chorus
    
    G|------------------------------------------------------------
    D|-----------------------------3-----------------------------3
    A|5555-5555-555555555555-11-3-5-5555-5555-555555555555-11-3-5-
    E|------------------------------------------------------------
    
    G|------------------------------------------------------
    D|------------------------------------------------------
    A|---------44444444--------------------55555555-55555555
    E|33333333-----------55555555-33333333------------------
    
    G|------------------------------------------------------------
    D|------------------------------------------------------------
    A|55555555-55555555-----------------------------------55555555
    E|------------------3333333333333333-0000000000000000---------
    
    G|---------------------------------------------
    D|---------------------------------------------
    A|55555555----------------------------------5-5
    E|--------3333333333333333-0000000000000000----
    
    
    outro
    
    G|-----------------------------------
    D|-----------------------------------
    A|55555555------------------55555555-
    E|--------00000000-33333333----------…
  • intro
    
    G|----------|----------|---------|---------|---------|
    D|----------|----------|---------|---------|---------|
    A|----------|----------|-----0-1-2-2-0-2-0-|---------|
    E|5-5-0-3-4-5-5-0-5-4-3|3-3-3----|--------3|5-5-0-3-4|
    
    G|-----------|---------|----------|
    D|-----------|---------|----------|
    A|-----------|-----0-2-4-4-2-4-2-0|
    E|5-5-0-5-4-3|3-3-3----|----------|
    
    
    verse
    
    G|--------|--------|--------|--------|
    D|--------|--------|--------|--------|
    A|--------|--------|--------|22222222|
    E|55555555|55555555|33333333|--------|
    
    G|--------|--------|--------|--------|
    D|--------|--------|--------|--------|
    A|--------|--------|--------|44444444|
    E|55555555|55555555|33333333|--------|
    
    
    bridge
    
    G|--------|--------|--------|--------|
    D|--------|--------|--------|--------|
    A|--------|--------|--------|--------|
    E|22222222|33333333|55555555|55555555|
    
    G|--------|--------|--------|--------|
    D|--------|--------|--------|--------|
    A|--------|--------|55555555|55555555|
    E|00000000|22222222|--------|--------|
    
    
    G|--------|--------|--------|--------|
    D|--------|--------|--------|--------|
    A|--------|--------|--------|--------|
    E|22222222|33333333|55555555|55555555|
    
    G|--------|--------|--------|--------|
    D|--------|--------|--------|--------|
    A|--------|--------|55555555|5-------|
    E|00000000|22222222|--------|--------|
    
    
    chorus
    
    G|--------|--------|--------|--------|
    D|--------|--------|--------|--------|
    A|--------|--------|--------|--------|
    E|55555555|55555555|00000000|00000000|
    
    G|--------|--------|--------|--------|
    D|--------|--------|--------|--------|
    A|--------|--------|55555555|55555555|
    E|33333333|33333333|--------|--------|…
  • Verse + Chorus
    
    G------------------------
    D------------------------
    A-----33--77--55---------
    E---33-------------------
    
    At end of chorus, play the last note a few times
    
    
    Bridge
    
    G------------------------------
    D------------------------------
    A---33--55--77--33--3-2-00-----
    E------------------------------…
Наверх