Аккорды Jerry Lee Lewis - Great Balls Of Fire

Добавлено: @romashka
Дата добавления: 31 Июля 2017г.
Рейтинг:
0.0
Просмотров: 369
Транспонировать - +
 Intro:
 e------------------------------------------------| 
 b------------------------------------------------| 
 g------------------------------------------------| 
 d-----------0-2-3---3-3-4-5---5-5-4-3------------| 
 a--0-2-3--3-------------------------------0-2-3--| 
 e-3-------------------------------------3--------| 
 
 e-----------------------------------------------------------------------| 
 b-----------------------------------2-2-4-2-2-4-2-2-4-2-2-4-2-2-4-2-2-4-| 
 g-----------------------------------0-0-0-0-0-0-0-0-0-0-0-0-0-0-0-0-0-0-| 
 d-2-2-4-2-2-4-2-2-4-2-2-4-2-2-4-----------------------------------------| 
 a-0-0-0-0-0-0-0-0-0-0-0-0-0-0-0-----------------------------------------| 
 e-----------------------------------------------------------------------| 
 
 e-----------------------------------------------| 
 b-----------------------------------------------| 
 g-4-4-6-4-4-6-----------------------------------| 
 d-2-2-2-2-2-2---7-7-9-7-7-9---2-2-4-2-2-4--2~~--| 
 a---------------5-5-5-5-5-5---0-0-0-0-0-0--0----| 
 e-----------------------------------------------| 
 
 e------------------------------------------------| 
 b------------------------------------------------| 
 g------------------------------------------------| do this part when 
 d-2-2-2-2---2-2-2-2---2-2-2-2----2----2--2-2-2-2-| jerry lee lewis says 
 a-2-2-2-2---2-2-2-2---2-2-2-2----2----2--2-2-2-2-| 'ur fine so kind 
 e-0-0-0-0---0-0-0-0---0-0-0-0----0----0--0-0-0-0-| u tell this world that ur 
                                                    mine mine mine mine'
Наверх