Аккорды J:МОРС - Ледоколы

Добавлено: @romashka
Дата добавления: 15 Декабря 2017г.
Рейтинг:
0.0
Просмотров: 199
Транспонировать - +
Intro: Dm Gm }x2

Куплет:
Dm Gm
Если мы горим, то значит ничего еще не поздно
Dm Gm
Если мы на дне, то значит мы теперь морские звезды
B+7 Gm
Нужен воздух
Dm
Чтобы дышать
Dm Gm
Жги на берегу костры, зови - я должен слышать голос
Dm Gm
Если ветер не попутный, я вернусь, но через полюс
B+7 Gm
Нужен воздух
Dm
Чтобы летать

Припев:
                                Dm A Dm Am
Ледоколами на юг, разбиваясь вдребезги
                             Gm  A
Разрывая тишину, зарываемся в пески
    Dm                 Am
Не обманывай себя, оставайся на плаву
    Abm       Gm
Ты молчишь, но говорят
  A
Уголки дрожащих губ

Куплет:
Dm Gm
Абсолютный ноль и отраженье в незнакомых лицах
Dm Gm
Оседает соль и не сгорает на твоих ресницах
B+7 Gm
Будет сниться
Dm
Будем мечтать
Dm Gm
Только не молчи, мне не хватает просто сердца стука
Dm Gm
Если мы сгорим, то не тоскуя больше друг без друга
B+7 Gm
Будем сниться 
Dm
Будем летать

Припев:
                                Dm A Dm Am
Ледоколами на юг, разбиваясь вдребезги
                             Gm  A
Разрывая тишину, зарываемся в пески
    Dm                 Am
Не обманывай себя, оставайся на плаву
    Abm       Gm
Ты молчишь, но говорят
  A
Уголки дрожащих губ

Solo:
e|-----------------------------------------|
b|-----------------------------------9-10--|
G|-----------------------------------------|
D|-----------------------------------------|
A|-----7-5----3-1---0----7-8-7-8-7-8-------|
E|-4-5-----1------1------------------------|
A Bb Gm Dm A

e|-12-10------------sl---------------------|
b|----------13-11-13--(10)-10--------------|
G|-------10--------------------------------|
D|-----------------------------------------|
A|-----------------------------------------|
E|-----------------------------------------|
Bb Gm A

Припев:
                                Dm A Dm Am
Ледоколами на юг, разбиваясь вдребезги
                             Gm  A
Разрывая тишину, зарываемся в пески
    Dm                 Am
Не обманывай себя, оставайся на плаву
    Abm       Gm
Ты молчишь, но говорят
  A
Уголки дрожащих губ

Outro:
e|-----------------------|
b|-----------------------|
G|-----9-7---------------|
D|-6-7-------10-8--------|
A|---------8---------12--|
E|----------------10-----|
A Dm         
Наверх