Аккорды John Doe - История мадемуазель О. (Церковь Детства cover)

Добавлено: @romashka
Дата добавления: 24 Июля 2021г.
Рейтинг:
0.0
Просмотров: 66
Транспонировать - +
Вступление
e|---------------------|
B|---------------------|
D|---2----2----2-------|
G|--2-2--2-2--2-2--2-2-| x2
A|-0-------------------|
E|------1----0----0-3--|

e|---------------------|
B|---3----3----3-------|
D|---------------------|
G|--2-2--2-2--2-2--2-2-|
A|-0-------------------|
E|------1----0----0-3--|

e|---------------------|
B|---------------------|
D|---2----2----2-------|
G|--2-2--2-2--2-2--2-2-|
A|-0-------------------|
E|------1----0----0-3--|

Am Am Am F
Эта история — о девочке Оле
E E E E G
Которая зимой нашла в подъезде зверька
Таких зверей они не проходили в школе
Оля в бумажку зверька завернула и домой принесла
Мама сказала: — Наверное, это котёнок!
Папа сказал: — Это крот, видишь, он слепой
Вместе они сказали: — Оставляй его, Оленька
Маленький такой, он замёрзнет зимой
Оля встречалась с мальчиком Димой
Правда, ещё не целовались пока
Дима пришёл и начал смеяться:
— Где ты, где ты купила такого дерьмового хомяка?
— Сам ты дерьмовый, — обиделась Оля
Дима напрягся и встречаться перестал
Столько лет прошло, Оля всё запомнила
Так её никто ни разу не поцеловал

Припев
F   Dm
Аллилуйя! Аллилуйя!
Am    G

F     Dm
Люди любят, любят Зверя!
Am     G

F   Dm
Аллилуйя! Аллилуйя!
Am   G
Люди любят, любят Зверя!
F   Dm
Аллилуйя!

Am Am Am F
А папа поспорил с дядей Серёжей
E E E E G
Почему у зверька отсутствует рот:
— На нашем комбинате это явление типичное
У нас каждый химик Святым Духом живёт
Папа кричал, и секреты родины слышала вся наша улица:
— Мы огородники, а не оборонщики!
И дядя Серёжа ударил отца

Припев

Проигрыш G F x4

C                  C      G
Мама зверька целовала и гладила
E
Но папу не долго пережила
C    C
Все мы когда-то уходим куда-то
    G            Am
За добрые наши смешные дела
C                C    G
Оля, поплакав, зверька завернула
E
В подъезд отнесла его в тихую рань
C        C 
Так что, дружок, хорошенько подумай
G       Am
Прежде чем приносить домой какую-то дрянь

Проигрыш и соло в нём:
   F       Dm     Am      G
e|-8-7-5---8-7-5--7-8-10--7-8-10-| x2

   F         Dm        Am      G         F   Dm
e|-15-13-12--15-13-12--7-8-10--15-17-19--20--22-|

Конец
G F x4
Наверх