Аккорды «John Frusciante»

John Frusciante
Джон Фрушанте младший родился 5 марта 1970 года в Нью-Йорке. Он рос в хорошей семье, у него были любящие родители, два брата и две сестры. В 13 лет дедушка дарит Джону гитару и отдает его на курсы классический гитары. С этих пор и начинается увлечение Джона музыкой. В 16 лет Джон уходит из дома и снимает квартиру. Он проводил дни, играя на гитаре под записи Джимми Хендрикса, Френка Заппы, Эрика Клептона, Джимми Пейджа и т. д. Тогда же, в 16 лет, Джон попадает на первый в своей жизни концерт… Читать полностью... Джон Фрушанте младший родился 5 марта 1970 года в Нью-Йорке. Он рос в хорошей семье, у него были любящие родители, два брата и две сестры. В 13 лет дедушка дарит Джону гитару и отдает его на курсы классический гитары. С этих пор и начинается увлечение Джона музыкой. В 16 лет Джон уходит из дома и снимает квартиру. Он проводил дни, играя на гитаре под записи Джимми Хендрикса, Френка Заппы, Эрика Клептона, Джимми Пейджа и т. д. Тогда же, в 16 лет, Джон попадает на первый в своей жизни концерт Red Hot Chili Peppers в Лос-Анджелесе и становится их преданным фанатом. Его подражание стилю игры Хиллела Словака становится одной из первопричин, по которой его взяли в RHCP в 1988-м. В марте 1989 г. RHCP приступают к записи первого альбома в составе с Джоном под названеием Mother`s Milk. Поскольку работа над Mother`s Milk была, по сути, первым опытом работы Джона в студии, он играл не то, что хотел, а то, что ему говорили. Подписав контракт с Warner, Red Hot Chili Peppers приступают к записи следующего альбома - Blood Sugar Sex Magik. К моменту записи альбома Джон отточил свое мастерство и выработал неповторимый стиль игры, который приносит ему известность и уважение многих гитарных изданий. В 1991 году Джон начал записывать свои сольные песни на 4-дорожечном магнитофоне. Эти песни, записанные под глубоким наркотическим кайфом, очень четко отражают состояние Джона на тот момент времени. Дальнейшая жизнь Джона была не самой лучшей.Его верхние зубы почти стерлись, на их месте теперь крошечные серые щепки, торчащие из гнилых десен. Его нижние зубы, редкие и коричневые, кажется, готовы вот-вот выпасть, если он будет кашлять слишком сильно. Его губы, бледные и сухие, покрыты густой слюной, которая больше похожа на пену. Он подстрижен почти наголо; его ногти, или места, где они должны быть, чернеются от крови. Кожа на его ногах дряблая, с ожогами от сигаретного пепла, упавшего незамеченным его плотью, нечувствительной к ушибам, покрытой струпьями и шрамами. Он носит старую фланелевую рубашку, застегнутую на пару пуговиц, и штаны цвета хаки, которые усеяны каплями засохшей крови…. Такие слухи ходили в Голливуде, слухи, которые никто не отрицал, потому что многим до этого уже не было никакого дела. Шептались, как он скрывался в своем доме на Холмах, в месте, где не многие отважились бы ступить из-за зловония — это был запах смерти, говаривал кто-то — но скорее всего это был всего лишь запах фекалий и мочи, скопившихся за недели и месяцы. Были и истории о бывшей знаменитости, рок-звезде, гитаристе, котрый теперь мало видит внешний мир, который остается в своем доме, чтобы читать, писать, рисовать, играть на гитаре. И принимать наркотики. Но все это не только слухи. Джон Фрусчианте — живая рок-звезда, скрылся в отеле Chateau Marmont, где зарегистрировалось больше знаменитостей, чем выехало. Четыре года назад он был участником одной из самых знаменитых групп рок-н-ролла, гитаристом Red Hot Chili Peppers, чьи рейтинги стремительно поднимались на радиостанциях и в концертных залах. А теперь он скрывается в своем временном убежище: комнаты, в которых он живет заполнены множеством CD (от David Bowie до его любимых King Crimson и Nirvana), разбросанных на полу бутылок из-под минеральной воды и алкоголя, пачками сигарет. Этой ночью Фрусчианте въехал в Chateau Marmont, потому что его выгнали из дома на Голливудских Холмах за неуплату аренды, и теперь у него нет постоянного адреса. После этого интервью, его выселили даже из отеля. Мой знакомый по работе, который до недавнего времени разговаривал с Джоном каждый день, сказал, что не слышал о нем уже больше недели. В таких случаях некоторые люди пожимают плечами, говоря: «Ну, возможно, он мертв.» Это — Фрусчианте, чьи первые слова в интервью были о том, как он употребляет героин. Все же в конце изнурительной ночной беседы он попросил, чтобы детали его жизни как наркомана были скрыты; он объяснил, что не хочет видеть раздражающих его полицейских, потому что любая статья, описывающая его увлечения, могла повлечь за собой допрос с пристрастием. Но это маловероятно, даже быстрый взгляд на его хрупкую разлагающуюся фигуру откроет грустную правду: его молчание никогда не могло остаться незамеченным. Он выглядит на 20 лет старше, чем тогда, когда был в составе Перцев, его голос теперь груб и не разборчив, он не ест, вместо этого он глотает высокаллорийные капсулы, которые обычно принимают пожилые и инвалиды. О своем теле он любит говорить — скелет, покрытый тонкой кожей — потому что теперь он похож на Дэвида Боуи в фильме «The man who fell to Earth«. Фрусчиане говорит, что почти умер в феврале: «В моем теле была лишь двенадцатая часть необходимой крови, да и та была инфицирована. А новую организм больше не производил.» Тогда он за несколько месяцев бросил наркотики и чистился столько, сколько мог. Но мир выглядел для него неправильно через мертвые трезвые глаза, чувствовался через онемевшие руки не так, как прежде. Духи не посещали его, призраки не разговаривали с ним. Дверь, открытая для него наркотиками, теперь была закрыта, и он готов был распахнуть его вновь, даже не смотря на то, что это могло убить его. Когда в 1988 году Фрусчианте присоединился к Red Hot Chili Peppers, о нем говорили, как о молодом и непорочном, юном 17-летнем южно-калифорнийском ребенке, который будет полной противоположностью предыдущему гитаристу Хиллелу Словаку, умершему в июне того года от передозировки героином. Джон пришел в группу как раз вовремя для записи Mothers Milk с грустным хитом Knock Me Down, песню о Словаке («Если ты увидишь, что я зашел слишком далеко, останови меня«), которая казалась бы теперь веселой и ироничной, если бы не была такой душераздирающей в прошлом. Фрусчианте ушел от Перцев в 1992, после года проведенного вместе с группой в дороге, в течение которого он каждый день видел зрителей, все больше и больше приходивших на их концерты. Джон дошел до ненависти к этой толпе, которая подпевала каждое слово и танцевала каждую песню, он не чувствовал связь между артистом и аудиторией, испытывал отвращение к этим людям, которые приветствовали обожали его, не зная кто он. И музыкально он ощущал себя сдавленным плотными структурами песен, тем, что зрители ожидали от группы исполнения хитов, точно в таком же виде, в каком они были записаны. Его надежды были словно в смирительной рубашке, он был задушен как музыкант, он отключился от призраков, которые хотели, чтобы он играл их музыку. «Первые пару лет в ЧП я не считал себя очень хорошим гитаристом по моим собственным стандартам,» говорит Джон сейчас. «Я не чувствовал, что мог взять сто процентов ощущений и красок из моей головы и точно перенести их на гитару и в слова, где они стали бы чем-то более конкретным, чем просто чувства, плывущие в пространстве. Но потом я стал настолько хорош в этом, насколько только может человек, и каждый вечер, когда мы выступали, я готов был играть разные соло и разные гитарные партии. Просто я был в хорошем отношении с духами и призракам, с красками мира. Песня — это что-то, откуда призраки берут чувства, но это не то, что доступно для сознания человека, исключая меня. Так что, духи дают мне это просто как цвета, как чувства, как эстетическое эхо в моей голове, а я способен взять это и превратить в музыку.» Когда Фрусчианте возвратился в Лос-Анжелес, он почти год сидел на своей кушетке угнетенный, одинокий и неспособный ничего делать. Он спрашивал себя, правильным ли было решения уйти из группы или он сделал ошибку уже тогда, когда присоединился к ней. Он был убежден, что растерял свой талант. Тогда Джон только экспериментировал с наркотиками, курил «каждый день, когда мне было 20″ и, как говорит, первый раз попробовал героин сразу же после записи альбома «Blood Sugar Sex Magik» 1991-го года и затем развлекался наркотиками снова и снова. В итоге они стали для него единственным спасением — он вновь начал вести свой дневник, рисовать, играть. Теперь он уже не мог существовать и без гитар, и без игл. «Я записываю музыку каждый день,» объясняет он. «Хорошо, что я вообще это делаю теперь. После ухода из группы я смотреть не мог на искусство, не мог рисовать, не мог читать, не мог играть на гитаре, даже просто слушать музыку не мог, я ничего не мог делать, валялся в депрессии на кровати, а потом стал наркоманом и снова вернулся к жизни, снова стал счастливым, снова начал играть. Но я не мог жить как раньше. Я был слишком угнетен. Я не мог разговаривать с людьми. Я был самым безнадежным и жалким человеком, которого вы когда-либо видели. Я думал, что завязал с музыкой и умру в ближайшую пару недель от депрессии. Я думал, что мое тело вот-вот откажет мне. И тогда я просто решил, что теперь стану наркоманом, и на следующий день мне было хорошо, я был счастлив. Я решил это без наркотиков. Раньше, мысли занимавшие мой мозг, были мне неподвластны. Посмотрите, теперь у меня появился контроль на тем, о чем я хочу думать. Когда что-нибудь приходит мне в голову, меня это уже так не заботит, я могу избавится от этого, вместо того, чтобы сидеть и представлять, как бы все могло произойти поступи я так или иначе. С героином у меня появилась власть над теми мыслями, которые могли внезапно возникнуть у меня в голове, я мог думать о чем-нибудь другом.» Осенью 1994 года на American Recordings, лейбле принадлежащем Рику Рубину, продюсировавшему «Blood Sugar Sex Magik«, Фрусчианте выпускает свой первый сольный альбом. Официально права на альбом имела звукозаписывающая компания Warner Bros. из-за контракта Фрусчианте с Перцами. Но поскольку тот жил как отшельник, не давал никаких интервью, WB с радостью передали все полномочия Рику Рубину, который все-таки решился выпустить альбом по просьбе Ривера Феникса, Butthole Surfers и Джонни Деппа. Альбом Фрусчианте «Niandra Lades and Usually just a T-shirt» был продан тиражем 15000 копий — крошечным по-сравнению с к тому времени шестимиллионным Blood Sugаr Перцев. Niandra Lades — это причудливый и сложный альбом, отрывистый и пугающий, сломавший стереотипы каждого фаната ЧП, который ожидал в нем больше панка и фанка. Сейчас Фрусчианте ожидает выхода своего следующего альбома «Smile from the Streets You Hold«. Дэвид Катцнельсон, вице-президент Warner Bros., говорит, что диск выйдет примерно весной следующего года. «То что он делает, не чуждо мне,» говорит Катнельсон о музыке Фрусчианте. «У Рика и Джона были прекрасные отношения, и я не переставал думать о Джоне и слушать его записи. В альбоме была пара настолько вдохновенных песен, что мне порой казалось, будь он выпущен на каком-нибудь другом лейбле, а не на American Records, он привлек бы к себе гораздо больше внимания. Тогда я позвонил Джону, и он воспользовался предоставленным ему шансом.» «Эти песни были написаны в разное время,» говорит Джон о предстоящем альбоме. «Одну песню я придумал, наверное, лет 10 назад, когда мне было 17, и я только присоединился к Перцам. Это, наверное, одни из моих лучших песен.» Джон хочет поставить кассету с новой музыкой, он направляется к магнитофону, пытаясь найти несведенные записи. Но, перематывая пленку вперед-назад к нужному месту, он случайно опрокидывает пакет с молоком, стоящий на магнитофоне. «Motherfucker,» кричит Джон и пинком отправляет стопку компакт-дисков в полет через всю комнату. Но через пару секунд он снова спокоен и сосредоточен, его темперамент под контролем. «Это не мой новый альбом,» объясняет он. «Это кассета с новыми записями, но не все они попадут на диск.» Наконец, он находит то, что хотел, включает магнитофон, делая звук громче; комната заполняется песней одновременно прекрасной и жуткой, притягивающей и безумной, где стихи скользят сквозь хаос мелодии. «Убей свою мамочку, убей своего папочку«, взывает одна особенно запоминающаяся фраза. За песней следует инструментал: мечтательное соло, сопровождаемое гитарными рифами на заднем плане. Джон закрывает глаза и, кажется, засыпает, позволяя полностью истлеть сигарете в его руке. Но как только песня заканчивается, он быстро приходит в себя. «Героин подчеркивает тебя,» объясняет Фрусчианте. «Если ты хочешь написать музыку, он помогает больше сконцентрироваться на этом, но в то же время, если ты хочешь просто валяться на кровати и ничего не делать, он поможет и это сделать лучше. С ним все получается лучше, чем ты хочешь. По крайней мере, у меня, не у других. Многие люди — близкие мне друзья, чисты, и я рад, что они чисты — они знают, что когда я чист, огонь в моих глазах гаснет, я теряю индивидуальность, я несчастлив, я словно опустошен. Многие говорят, что чувствуют преграду, когда общаются с человеком, принимающим наркотики, но у меня есть три девушки, которых я люблю, с одной из них я встретился в феврале, когда был чист, потом она позвонила и мне сказала, что между нами словно бы была невидимая стена. Мои работы непохожи на то, что делают другие люди, значит наркотики воздействуют на меня иначе.» Фрусчианте говорит, что снова хотел бы выйти на сцену — последний раз он выступал в клубе Деппа Viper Room, ночью, когда умер его лучший друг Ривер Феникс. Джон хочет собрать настоящую группу для исполнения своих песен, в которых были бы не только одни куплеты, но и припевы. Он все еще мечтает издать записи джэм-сессий Three Amoebas, которые он записал вместе с Фли и барабанщиком Porno for Pyros Стивеном Перкинсом несколько лет назад. Катцнельсон сказал, что постарается помочь Джону выпустить его музыку, организовать несколько выступлений, заработать немного денег, чтобы его наконец перестали выселять отовсюду. Однако он понимает, что сделать это будет не так просто; никогда не может быть гарантий с человеком, который медленно убивает себя, и никто даже не пытается остановить его. «Если бы я судил о людях по их образу жизни, то вообще ни с кем не имел бы дела,» говорит Катцнельсон. «У многих многих людей, с которыми я работаю, есть проблемы: у кого с незаконными препаратами, у кого с собственными демонами. Может быть, если бы я ожидал от Джона полноценных гастролей, в которые были вложены большие средства, то рвал бы на себе волосы от волнения. Но здесь деньги не при чем. Я просто хочу, что бы люди услышали его. Если он хочет играть, отлично; если не хочет, пожалуйста; если хочет давать интервью, великолепно; не хочет, ради бога. Я думаю он очень… он очень привык к самому себе.» В конце концов, Джон Фрусчианте стал еще одним одаренным музыкантом, который принимает наркотики через каждые несколько часов — между игрой и рисованием, между ведением дневника и чтением, между подготовкой к записи нового диска и поисками жилья, между жизнью и смертью. Сейчас, компании еще ведут дела с такими люди как Фрусчианте, правда, им приходится тщательно скрывать пристрастия своих клиентов. После смерти Феникса от Джона отвернулось большинство друзей; после очередных попыток хоть как-то вмешаться и спасти его, они отказались следить за тем, как он уничтожает себя. Джон знает, что им не нравится находится рядом с ним, но ему на это плевать. «Они боятся смерти, а я нет,» говорит Джон. «Я не забочусь о том, живу я или умираю.» В 1998 году Фрушанте успешно проходит курс реабилитации и возвращается в Red Hot Chili Peppers. В следующем году выходит новый альбом группы под названием Californication. С этого времени Джон играл в Red Hot Chili Peppers. В 2003 году журнал Rolling Stone поместил его на 18-ю позицию в рейтинге «100 величайших гитаристов всех времен». 16 декабря 2009, после серии слухов об уходе Фрушанте из группы, в его официальном блоге появилась запись, в которой говорилось о том, что он покинул группу. Там же он написал, что его место скорее всего займёт Джош Клингхоффер. В 2010 году Джон выбран величайшим гитаристом 30-летия по результатам голосования BBC. Скрыть...
Популярные аккорды John Frusciante:
алфавиту | просмотрам | случайно
  • E||----------------------9--12--|--------------------------------|
    B||-------12--9--10--10---------|--12--10--9--10--12--9--10--10--|
    G||-----------------------------|--------------------------------|
    D||-------4------4---4----------|--4---4---4--4---4------4---4---|
    A||-----------------------------|--------------------------------|
    E||--2-----------2---2------2---|-----------------2------2---2---|…
  • Standard tuning
    
    Intro / Chorus
      
        Gm       C
    E|--3-3-3-3-----------------------------------------------
    B|--3-3-3-3--5-5-5-5------6--------3--------6--------3----
    G|--3-3-3-3--5-5-5-5--------------------------------------
    D|--5-5-5-5--5-5-5-5----8---8----5---5----8---8----5---5--
    A|--5-5-5-5--3-3-3-3--6--------3--------6--------3--------
    E|--3-3-3-3-----------------------------------------------
    
    
    Intro-Solo…
  • Part A:
    
    E|--------------------------------------------------------------------------|
    B|14------------14--------13----------13----------11---------11-------------|
    G|--------15------------15--------13----------13--------11---------11-------|
    D|----15-----------15--------13----------13---------11---------11-----------|
    A|13---------13-----------11--------11-------------9--------9---------------|
    E|--------------------------------------------------------------------------|
    
    Play…
  • Standard tunning
    
    chords:
    names of chords aren't correct
    
        Cmi      A#*    Fmi                 F*     G#      D#
    e  --3--   --8--   --8--      -13--   --3--   --4--   --6--
    b  --4--   --6--   --9--      -13--   --1--…
  • Intro (let ring)
    |-21-|
    |----|
    |----|
    |----|
    |----|
    |----|
    
    Chorus (with capo on the first fret)
      F#       D#m      Fm       A#m
    |-1-1-1-1--1-1-1-1--0-0-0-0--0-0-0-0-|
    |-1-1-1-1--3-3-3-3--0-0-0-0--1-1-1-1-|
    |-2-2-2-2--2-2-2-2--0-0-0-0--2-2-2-2-|
    |-3-3-3-3--0-0-0-0--2-2-2-2--2-2-2-2-|
    |-3-3-3-3--x-x-x-x--2-2-2-2--0-0-0-0-|
    |-1-1-1-1-----------0-0-0-0--x-x-x-x-|
    
    This…
  • Standard tuning (EADGBe)
    
    Chords troughout verse
      Am  F   C   G
    |-5---1---0---3-|
    |-5---1---1---3-|
    |-5---2---0---4-|
    |-7---3---2---5-|
    |-7---3---3---5-|
    |-5---1---x---3-|
    
    Intro
    |-------------------12-15--7h8-12-8-|----------------------|
    |-10----12-13-----------------------|-10----12-13----------|
    |-------------10--------------------|-------------10---9---|
    |-----------------------------------|-------------------10-|
    |-----------------------------------|----------------------|
    |-----------------------------------|----------------------|
    
    Verse…
  • Tuning: Eb Ab Db Gb Bb Eb
    Chords used
    E	x22100
    A	X02220
    B	x24432
    C#m	x46654
    F#m	244222
    Amaj7	x02224
    
    Part I
    E                     C#m
    Let the pretend take over
               A    B       C#m
    And that season be the first
    E…
  • Intro:
    
    E|------------------------10---12--|
    B|--------7--8------8--------------|
    G|---------------------------------|
    D|-----9-------10------------------|
    A|--7------------------------------|
    e|---------------------------------|
    
    The…
  • --------------------------------------------------------|---------------------|
    -9---9-9-9-9-----7--7---------5---5-5-5-----7--7--------|---------------------|
    -9---9-9-9-9-----8--8---------6---6-6-6-----8--8--------|---------------------|
    -9---9-9---9-----9--9---------7---7---7-----9--9--------|---------------------|
    -7---7-----------9--9---------7-------------9--9--------|---------------------|
    --------------------------------------------------------|---------------------|…
  • Intro: Guitar: 1
                                Verse:
    E|-------------------------------|---------------------|
    B|-----------1-------------0-----|-------1--------0----|
    G|-----2---2---2------2--2---2---|---------------------|
    D|-------------------------------|---------------------|
    A|-0-----------------------------|---0-----------------|
    e|-----------------3-------------|------------3--------|
    
    Guitar…
  • *******************************************************************************
     D            Dm7       D           Dm7        D           Dm7         C
    |10-----------------------10-----------------------10--------------------10--8-
    |---10----------------10-----10----------------10-----10---------------------8-
    |------11----------10-----------11----------10-----------11----------10------9-
    |---------12----10-----------------12----10-----------------12----10-----------
    |------------12-----------------------12-----------------------12--------------
    |------------------------------------------------------------------------------
    |
    |------7-8-7-------------------------------------------------------------------
    |------------10-----8h10-------------------------------------------------10----
    |------------------------------9b10b11--------------------------------/10----9-
    |-------------------------------------------------12-10/12-----10-10-----------
    |-----------------------------------------------------------12-----------------
    |------------------------------------------------------------------------------
    |
    |10------------8-10-8----------------------8-----------------------------------
    |---------------------10--------------8h10----10-----------------------8-10----
    |----------------------------------------------------------------------------9-
    |------------------------------------------------------------------------------
    |------------------------------------------------------------------------------
    |------------------------------------------------------------------------------
    
    *******************************************************************************…
  • Bm   A   G   G         | 
    aaaaaa.........         | x4
    
          
           Bm      A        G      G
    when I try I force it out
    
           Bm         A     G      G    
    never looking in only out
    
    
      D        A         F#m      G
    now…
  • Verse
    
    G|----------------------|
    D|--5---------7--7------|
    A|-----5--0---------7-7-|
    E|----------------------|
                                      Rinse and repeat
    G|----------------------|
    D|--5-----7-------------|
    A|-----5----------------|
    E|----------------------|
    
    End…
  • Tuning: standard
    Chords used
    C	x32010
    D	xx0232
    G	320033
    Am	x02210
    Dsus4	xx0233
    
    Intro
    G - D Dsus4 - Am - C
    G - D Dsus4 - Am - C
    
    G                    D Dsus4           Am
    These things'll go slowly by - these things…
  • Verse 1
       Am         C                F              Dm
    Im central to nowhere thinking of sweeping it clean
            Am                C                F               Dm
    When we choose to go were losing more than just…
  • / = Slide Up         p = pull off
                                  \ = Slide Down       } = pull the string
                                  # = let it sound
                                  h = hammer on
    
    
    INTRO:  (Don't strum…
  • Tuning: half step down (Eb Ab Db Gb Bb Eb)
    Chords used:
    C	x32010
    G	320033
    F	133211
    Am	x02210
    Dm	xx0231
    Em	x33000
    C/B	x2x010
    Am/G	302210
    
    C       C/B        Am Am/G
    I was afraid to be me
    F               G
     Be anyone you want…
  • Standard tuning(EADGBe)
    
    Verse
    G                 Dm          C 
    To seem you're in me and over me,
    
    EmC   Am
    Relief in all things,
    
    F                            C
    And all things shoot through me,
    
    D…
  • Intro and Verse
    
    C	G7	Am	Fadd9
    
    Chorus
    
    "Never Now We Need The Other"
    
    Just strum this the way you here it
    
    |--5--------|
    |--5--------|
    |--5--------|
    |--7--------|
    |--8--------|
    |-----------|
    
    Interlude…
  • Standard tuning(EADGBe)
    
    Chorus
      E    B    A    D#m       E    B    A    E
    |-7-7--7-7--5-5--4-4-|   |-7-7--7-7--5-5--0-|
    |-9-9--7-7--5-5--5-5-|   |-9-9--7-7--5-5--0-|
    |-9-9--8-8--6-6--6-6-|   |-9-9--8-8--6-6--1-|
    |-9-9--9-9--7-7--6-6-|x3…
  • A                     E        D
    All around you is to feel and watch you 
    A                     E        D
    They make patterns to peel the sound 
    Bm               A           E
    And I find it a pain that goes along 
    Bm…
  • Dm            Am
    Exclamations feel,
    
      Dm                 Am
    Before you set to conceal.
    
        Dm                Am
    she loves the man you told,
    
            Dm              Am
    Did you see me a flying coach.
    
    Dm…
  • tuned down 1/2 step
    
    0:00
    Part A
      C                                 A
      1     e 2     e 3       4         1       2   &   3     e 4
    |-------3-------------------------|---------0-------------0---------|
    |---------------1-----------------|---------------------------------|
    |---------0-----------------------|-------------2-----------2-------|
    |---------------------------------|---------------------------------|
    |-3---------------3-------2-------|-0-------------------------------|
    |---------------------------------|---------------------------------|…
  • Verse: (I think you can figure out how the rythem is yourself;) )
    e|------------------------------------------------------------------------|
    B|------------------------------------------------------------------------|
    G|------------------------------------------------------------------------|
    D|-------3--3-----------2--2-----------3--3-----------2--2----------------|
    A|-5--5--------5--0--0--------0-----------------0--0--------0-------------|
    E|-------------------------------1--1--------1----------------------------|
    
    e|------------------------------------------------------------------------|
    B|------------------------------------------------------------------------|
    G|------------------------------------------------------------------------|
    D|-------3--3-----------2h3p2----------3--3-----------2--2----------------|
    A|-5--5--------5--0--0--------0-----------------0--0--------0-------------|
    E|-------------------------------1--1--------1----------------------------|
    
    Turn…
  • Intro: With Violнn
    
    Guitar: 
    
       Dm
    E|----------1------1-|
    B|-----3------3------|
    G|---2----------2----|
    D|-0-----0-----------|
    A|-------------------|
    e|-------------------|  X 2
    
    Dm                              C Bb Dm
    I…
  • Main riff
    E||-------0-0----0-0-|------0-0---0-0-||
    B||-------0-0----0-0-|------0-0---0-0-||This is only approximate,
    G||-------0-0----0-0-|------0-0---0-0-||you may need to hit the 
    D||-------5-5--------|------5-5-------||strings…
  • Tuning: standard
    Chords used:
    C	x32010
    E	x22100
    G	355433
    F	133211
    Am	x02210
    
    Intro
      C
    E-----------------------------------------------------------------------|
    B---------1----------------1----------------1----------------1------1---|
    G-------0---0------------0---0------------0---0------------0---0--------|
    D-----2-------2--------2-------2--------2-------2--------2-------2------|
    A-3-3-----------3--3-3-----------3--3-3-----------3--3-3----------------|
    E-----------------------------------------------------------------------|…
  • C              G                    Am
     Your pussy's glued to a building on fire
    F           Em                      Dm
     I paint my mind just because I'm alive
    G                              C
     And if you see me roaming…
  • C            Dm
    Tonight you're mine completely
            C            G
    You give your love so sweetly
              E               Am
    Tonight the light of love is in your eyes
          F      G7        C
    But will you love…
  • verse
    
    Am                       G
    Being in line is a dream I'm after....
    
    chorus
    
    C      G      Am   F
    I'll be your cind aviator....
    
    bridge
    
    Am   C
    
    Em    F    C
    Em    F    Am
    
    solo
    
    Em    F    Am…
  • Bm  G   A   F#  D
    |-7-|---|---|---|-5-|
    |-7-|-3-|-5-|-2-|-7-|
    |-7-|-4-|-6-|-3-|-7-|
    |-9-|-5-|-7-|-4-|-7-|
    |-9-|-5-|-7-|-4-|-5-|
    |---|---|---|---|---|
    
    
    
    Verse 1
    Bm            G 
    PT Boat on the way to Havana,
    A…
  • Note: All chords are Barre chords. Most are quite high (around the
    8th, 10th, 12th fret, etc)
    
    F	C	    Dmin	E5
    Hold me	closer tiny dancer
    
    F	    C		       Dmin	E5
    I count	the head-lights	on the high-way
    
    F…
  • Intro : 
    B Ebm C# G#m (arpeggio) 
    
    Verse : 
    Same as intro (no arpeggio) x2 
    
    Chorus : "I'll be you I do ...; 
    F# C# G#m x2 
    
    then : Arpeggio with strung e B and G F# C# G#m x1 
    
    then : G#m F# C# 
    G#m F# C# 
    F#…
  • Tuning: standard
    Chords used:
    B	x24442
    E	x22100
    F#	244322
    Ebm	x68876
    C#m	x46654
    G#m	466444
    
    G#m
     You take me by the hand
                   Ebm        G#m
    A hand's all I feel right now
               Ebm
    It's all I am
         G#m
    It's…
  • A# major, then G minor, D# Major, F Major. then the chorus is just A# major to A#major 
    and back. hope you know those chords.
    
    Intro:
    e|-------------|
    b|-------------|
    g|-------------|
    d|-------------|
    a|----------0--|
    E|--1-1-1-3----|…
  • Intro: With Drums
    
    Bm                 D       Em
    I'm representing a face of light
    Bm                              D      Em 
    I'll take your place, it's only right 
    F#m             
    I don't hesitate this time 
    G         A…
  • --------------------------------------------------------------------------------------------|
    ------------------------------------10----9---9h12-14-/12---12--12--12--12--9----9/12-12/14-|
    ----------------7----7/10-10-----10---------------------------------------------------------|
    ------------------------------12------------------------------------------------------------|
    --------------------------------------------------------------------------------------------|
    --------------------------------------------------------------------------------------------|
    
    
    -------------------16--14--12---------------------------------------------------------------|
    14-17-16-14---------------------14--/12-12---12/14-12h14-12h14-12---14b16b14--14--/12-12----|
    ------------16-13------------------------------------------------------------------------13-|
    --------------------------------------------------------------------------------------------|
    --------------------------------------------------------------------------------------------|
    --------------------------------------------------------------------------------------------|
    
    
    ----------------------------------------------------------------------17------|
    ---------------------------------------------------------17----17-----…
  • C  Em Am
    I fail to do 
    C Em Am
    what I'm trying 
    C Em Am
    I've been these walls 
    C Em Am
    And everyone who dies hears others 
    F Em Dm
    times 
    
    C Em Am
    This immediacy 
    C Em Am
    is unknown 
    C Em Am
    to me and appears to be 
    C Em…
  • Intro
    e------------------|
    B-----4---4---4----|
    G-------5---5---5--|
    D---5----5---5---5-|
    A-3----------------|x4
    E------------------|
    Riff
    e------------------------------------|
    B-----4----44---3-1-----4---4---4----|
    G-------5--55-3-3-2-------5---5---5--|
    D---5----5-55-5-3-3---5----5---5---5-|
    A-3--------33-5-1-3-3----------------|x4
    E-------------3---1------------------|
    
    e------------------------------------------------------------------------|
    B-3-3-33-11-11-4444-44-3-3-33-11-11-4-4-44-------3-3-33-11-11-4----------|
    G-3-3-33-22-22-5555-55-3-3-33-22-22-5-5-55-33-33-3-3-33-22-22-5----------|
    D-3-3-33-33-33-5555-55-3-3-33-33-33-5-5-55-55-55-3-3-33-33-33-5----------|
    A-1-1-11-33-33-3333-33-1-1-11-33-33-3-3-33-55-55-1-1-11-33-33-3----------|
    E--------11-11----------------11-11--------33-33--------11-11------------|
    The…
  • Tuning: standard
    Chords used
    A	x02220/577655
    D	xx0232
    E	022100
    Bm	x24432
    F#m	244222
    
    Bm                                 A
    Your number fakes coming along without you
    A
    Knowing a shift took place
    Bm…
  • Fm         C#
    You're the feeling of hurting
    Fm   C#           Ab    Bbm
    More is what I'm asking for
    C#           Ab       Bbm
    Little lies cross overboard
    C#           Eb
    Wait for the crying
    Fm      C#
    Love to aim…
  • Verse 1
    e----5-----------------------5---------------------
    B--------------5----5h7----------------5-------5h7-
    G---------6-----------------------6----------------
    D--4----4------------------4----4------------------
    A------------4----4------------------4----4/5------
    E--------------------------------------------------
    
    Chorus
    e--0----2----4----2------
    B--2----3----5----3------…
  • A   E                     F#m
        Seal your wide shores
    A       E            F#m
       With no one in between
    A      E                 F#m
       You feel your fading dial
        A              E
    You know someone's happened…
  • Tuning: standard
    Chords used
    A	x02220/577655/x7765x
    B	x24442/799877/x9987x
    E	022100
    Ab	466544
    Am	x02210
    C#m	x46654
    A/F7	x010810x
    F#m6	2x122x
    Cdim7	x3423x
    Amaj7	x02224
    A#dim7	x1202x
    
    Start on E
    
    Chorus
    E      Ab       A…
  • Prepare your power chords ;)
    
    Verse > Bb5 Ab5 F5 Ab5 C5
    riff1 > C#5 Eb5 Bb5
    riff2 > Ab5 Bb5 F5 
    chorus > Eb5 F5 Bb5 F#5 C#5 Bb5
    riff3 > F#5 C#5 Bb5 (alt.Eb5)
    
    
    
    Bb5        Ab5    F5   Ab5 
    Today will not be happening…
  • Gm   F           Eb
    In   enemies' hands 
       Bb           Bb7M      
    I don't have to measure
      Bb            Bb7M       
    I don't have to measure
    Gm   F        Eb
    In   enemies' hands 
       Bb            B7M      
    I…
  • Tuning: Standard
    
    e|--------------|
    B|---12b14------|
    G|--------------|
    D|--------------|
    A|--------------|
    E|--------------|
     
                 
    e|---0-0---0-0-0---0-0---0-0-0---2-2---2-2-2---2-2---2-2-2---|
    B|---2-2---2-2-2---0-0---0-0-0---2-2---2-2-2---2-2---2-2-2---|
    G|---2-2---2-2-2---1-1---1-1-1---2-2---2-2-2---2-2---2-2-2---|…
  • F#m                 E         
    Seems to be away is peachy now
    F#m              D      E 
    Feel like may be far at all
    F#m                       E 
    I've got these clothes to deceive me 
    F#m            D   E
    I've been…
  • Intro: Gm x4
    
    Gm                    Cm
    Someone's waiting to fly with me
    Gm                   Cm
    Someone's saying goodbye 
                  Bb                  Cm
    Everytime she says hello cuz they both
    Bb                Cm
    Connect…
  • Tuning: standard
    
    e|--11b---11b--------10--10---------11b------------------------------12b-----|
    B|--------------12-----------12-------------------13----12p13p12-------------|
    G|---------------------------------------------------------------------------|
    D|--------------------------------------12----14-----------------------------|
    A|---------------------------------------------------------------------------|
    E|---------------------------------------------------------------------------|
    
    e|-10--10----------12-------------------10-----------------12b---10---18b----|
    B|---------12---------------------13----------12b---12-----------------------|
    G|---------------------------------------------------------------------------|
    D|----------------------12---14----------------------------------------------|
    A|---------------------------------------------------------------------------|
    E|---------------------------------------------------------------------------|
    
    e|--10---12---19b---19p20p19---18b--16--17--17--15---17-----------21b--20----|
    B|-------------------------------------------------------15--17--------------|
    G|---------------------------------------------------------------------------|
    D|---------------------------------------------------------------------------|
    A|---------------------------------------------------------------------------|
    E|---------------------------------------------------------------------------|
    
    e|-19--------------------------------------------11b--11b---11b------10--10--|
    B|---------------------------------------------------------------12----------|
    G|---------------------------------------------------------------------------|
    D|---------14----12--12--11--10--------9-------------------------------------|
    A|---------------------------------10-----10---------------------------------|
    E|---------------------------------------------------------------------------|
    
    e|---------10----------------------------------------------------------------|
    B|---12-------------------12b--------12b-------------------------------------|
    G|------------------------------12--------12---11---14---12----16------------|
    D|-------------12---14---------------------------------------------12---14---|
    A|---------------------------------------------------------------------------|
    E|---------------------------------------------------------------------------|
    
    e|---------------------------------------------------------------------------|
    B|--12b----------------------------------------------------------------16----|
    G|-------12---------------------------------------12/16--16---15p18p19-------|
    D|----------------------8b-----------12--11--10------------------------------|
    A|---------------------------10----------------------------------------------|
    E|---------------0-----------------------------------------------------------|
    
    e|--------------------------------------------------------------------13b----|
    B|----------16-------------16------------16-----------16--------16-----------|
    G|--15p18p19------15p18p19------15p18p19------15p18p19----15p18p-------------|
    D|---------------------------------------------------------------------------|
    A|---------------------------------------------------------------------------|
    E|---------------------------------------------------------------------------|
    
    e|---------------------------------------------------------------------------|
    B|---18b---15--15b-----------------------------------------------------------|
    G|------------------16----19--18--17----16b-----16b--------------------------|
    D|------------------------------------------17------17----16--18b--17--------|
    A|---------------------------------------------------------------------------|
    E|---------------------------------------------------------------------------|
    
    e|---------------------------------------------------------------------------|
    B|---------------------------------------------------------------------------|
    G|------------------17-------11---14---12---14-------------------12----------|
    D|--17------------------14----------------------12--14---12--14-----14-------|
    A|------17---19--------------------------------------------------------------|
    E|---------------------------------------------------------------------------|
    4:50
    e|---19---19---19--19---21b--19--18b-17--15--17--17--15--17------------------|
    B|-----------------------------------------------------------15--17----------|
    G|---------------------------------------------------------------------------|
    D|---------------------------------------------------------------------------|
    A|---------------------------------------------------------------------------|
    E|---------------------------------------------------------------------------|
    
    e|---------------------------------------------------------------------------|
    B|--16b-15----15------------------10-----------------------------------------|
    G|---------16----16---15b--12-------------------------------------14b--------|
    D|------------------------------------12---14----16---16/19--17--------12--14|
    A|---------------------------------------------------------------------------|
    E|---------------------------------------------------------------------------|
    5:44
    e|---------------19--19--19--19--19------------------------------------------|
    B|------------------------------------19\17--15--15p1715---------------------|
    G|----16b--16---------------------------------------------16---19--18--17----|
    D|---------------------------------------------------------------------------|
    A|---------------------------------------------------------------------------|
    E|---------------------------------------------------------------------------|
    
    e|---------------------------------------------------------------------------|
    B|---------------------------------------------------------------------17----|
    G|--17b----------------------------------------------------------16-16-------|
    D|---------------------------------------------------------14--14------------|
    A|----------------------------14--12--------------14b---14-------------------|
    E|---------12----12---14--14------------10--12-------------------------------|
    
    e|-----19---17/19-19---18b-15--15--17----------20--21b-20\19--19b-19b-19b-19b|
    B|--17----------------------------------15--17-------------------------------|
    G|---------------------------------------------------------------------------|
    D|---------------------------------------------------------------------------|
    A|---------------------------------------------------------------------------|
    E|---------------------------------------------------------------------------|
    
    e|-22b--22b--22b--22b--21b--21--20b-20---------------------------------------|
    B|--------------------------------------15--17-17--15--17-17--15--17-17------|
    G|---------------------------------------------------------------------------|
    D|---------------------------------------------------------------------------|
    A|---------------------------------------------------------------------------|
    E|---------------------------------------------------------------------------|
    
    e|---------------------------------------------------------------------------|
    B|-15--17-17--15--17-17---15--17-17--15--17-17---15--17-17--17-17-17-17-17-17|
    G|---------------------------------------------------------------------------|
    D|---------------------------------------------------------------------------|
    A|---------------------------------------------------------------------------|
    E|---------------------------------------------------------------------------|
    
    e|---------------------------------------------------------------------------|
    B|--15-15-15--15/17---15b15----15b15---15b15----15b15---15b15---15b15--15b15-|
    G|-------------------------14-------14------14------14------14------14-----14|
    D|---------------------------------------------------------------------------|
    A|---------------------------------------------------------------------------|
    E|---------------------------------------------------------------------------|
    
    e|-------------------------------13b-----10------14--12--12------------------|
    B|-16b----15------15------------------12----12--------------15---15--14--13--|
    G|-----16----16--------------------------------------------------------------|
    D|--------------------12--14-------------------------------------------------|
    A|---------------------------------------------------------------------------|
    E|---------------------------------------------------------------------------|
    
    e|---------------------------------------------------------------------------|
    B|---13--13--13--13--13------------------------------------------------------|
    G|------------------------------------14--14b--12--14----------16b-----------|
    D|------------------------14--14--16-------------------12--14-------14-------|
    A|---------------------------------------------------------------------------|
    E|---------------------------------------------------------------------------|
    
    e|---------------------------------------------------------------------------|
    B|-------------------------15--14--13--13--13------15---17-15-17--17-15-17-17|
    G|----------14--14b--12------------------------------------------------------|
    D|--14--16-------------------------------------------------------------------|
    A|---------------------------------------------------------------------------|
    E|---------------------------------------------------------------------------|
    
    e|---------------------------------------------------------------------------|
    B|--17-15-17---17-15-17-17--17-15-17-17-15-17-17--17-15-17--19--21b--20--20b-|
    G|---------------------------------------------------------------------------|
    D|---------------------------------------------------------------------------|
    A|---------------------------------------------------------------------------|
    E|---------------------------------------------------------------------------|
    
    e|--17b-----------20b--------------------------------------------------------|
    B|------15--17---------------------------------------------------------------|
    G|--------------------------------------------------------15b--15b--13-------|
    D|------------------------------14----14---14-------14-----------------14----|
    A|---------------------------------------------------------------------------|
    E|-----------------------12--------------------20----------------------------|…
  • B
    e|--------------------------------------------------------------------------|
    B|------------------4--------------4--------------4--------------4----------|
    G|-------------4--------------4--------------4--------------4---------------|
    D|--------4--------------4--------------4--------------4--------------------|
    A|---2----------------------------------------------------------------------|
    E|--------------------------------------------------------------------------|…
  • e|----------------------------------------------|   X4
    B|----------------------------------------------|       
    G|---5-5-5---7-7-7---5-5-5---9-9-9-9-9-9-9-9----|
    D|---5-5-5---7-7-7---5-5-5---7-7-7-7-7-7-7-7----|
    A|---3-3-3---5-5-5---3-3-3---7-7-7-7-7-7-7-7----|
    E|----------------------------------------------|
    
    Then:…
  • Bbm                   Fm
    Remember all you've forgotten
    F#      C#        Ab      Bbm
    I can't put those thoughts away
          F#         C#             Ab      Bbm
    Everything I've thought's in my head to stay
        Ebm…
  • standard tuning
    
      Verse
      Bm            A     Em
    |-------------|---------------|
    |------3------|-----2---------|
    |------4---4--|-----2------0--|
    |----4-----4--|---2--------2--|
    |-2-----------|-0--------2----|
    |-------------|-------0-------|…
  • Intro: Asus2 Csus2 G X 2
    
    E|---------------------------------|---------------------------------|
    B|-------0-------------------------|-------0-------------------------|
    G|-------------0-------------------|-------------0-------------------|
    D|-------------------2--p0-0-2-2---|-------------------2--p0-0-2---2-|
    A|-0-------0-----------------------|-3-------3-----------------------|
    e|---------------------------------|---------------------------------|
    
    E|---------------------------------|---------------------------------|
    B|-------0-------------------------|-------0-------------------------|
    G|-------------0-------------------|-------------0-------------------|
    D|-------------------2--p0-0-2-2---|---------------------------------|
    A|-0-------0-----------------------|-3-------3-----------------------|
    e|---------------------------------|---------------------------------|
    
    E|---------2---2-2---2-2---2-------|-0-------0---0-0---0-0---0---0---|
    B|---------3---3-3---3-3---3---3-0-|-0-------0---0-0---0-0---0---0-0-|
    G|-0-------0---0-0---0-0---0---0-0-|-0-------0---0-0---0-0---0---0-0-|
    D|-0-------0---0-0---0-0---0---0-0-|-2-------2---2-2---2-2---2---2---|
    A|---------------------------------|-3-------3---3-3---3-3---3---3---|
    e|-3-------3---3-3---3-3---3-------|---------------------------------|
    
    With…
  • Intro:
    (Piano arranged for Guitar)
    
      (Am)
    E--5-----5-5-----5-5-----5-5-----5---|      (X2)
    B------5-------5-------5-------5-----|
    G----5-------5-------5-------5-------|
    D------------------------------------|
    A--0---------------------------------|
    E------------------------------------|
    
    In…
  • e|----------------------------------|
    B|----------------------------------|
    G|----------------------------------|
    D|----------------------------------|repeat x times
    A|----------------------------------|
    E|-3h5—5—5-5---5-5--3h5-5-5---5-5-5-|
    
    
    e|-11--------9--------8-------------|
    B|----13-------11------9--9/11--11--|
    G|-------13-------10----8-----------|
    D|----------------------------------|
    A|----------------------------------|
    E|----------------------------------|…
  • Dm     C  Gm 
    Dm     C  Gm 
                      I mean it
    Dm                     C    Gm
    I wouldn't go outside
        Am     Gm
    And walk around
    Dm            F           C    Bb
    They may fear for your life
         F  C…
  • Tuning: Standard (EADGBE)
    
    Figure 1 (Intro)
     Gtr. I
    E|-------5------3-0-----------------|-------5------3-0--------------------|
    B|-------5------3-------------------|-------5------3----------------------|
    G|-----5-5------3-------------------|-----5-5------3----------------------|
    D|---4--------2---------2---2---2---|---4--------2---------2---2----------|
    A|-5--------3---------2---2---2---2-|-5--------3---------2---2---2--2-3-4-|
    E|------------------0---------------|------------------0------------------|
    
    E|-------5------3-0-----------------|-------5------3-0--------------------|
    B|-------5------3-------------------|-------5------3----------------------|
    G|-----5-5------3-------------------|-----5-5------3----------------------|
    D|---4--------2---------2---2---2---|---4--------2---------2---2----------|
    A|-5--------3---------2-2-2---2---2-|-5--------3---------2---2---2--------|
    E|------------------0---------------|------------------0------------0-1-2-|
    
    Figure…
  • standard tunning
    chords:
     
      Dm  A    F*  C Gm   F    Bb  C#   Eb
    |--x---x---x----x----x-----x---x----x----x---|
    |--6---5---10--8----11---x---3----6----8-----|
    |--7---6---10--9----12---2---3----6----8-----|
    |--7---7---10--10--12---3---3----6----8------|
    |--5---7---8---10---10---3---1----4----6-----|
    |--x---x---x----x-----x----1---x----x----x---|
    
    *same…
  • Chords:
    C#: X4666X
    Eb: X6888X
    Ab: X66544
    Fm: 133111
    Bb: x13331
    
    
    C# Eb
    Are we
    Ab           Eb   Fm
    Down for the same cause
             Ab           Eb   Fm
    We don't know what we stand for
             Ab      Eb…
  • C                    D     Bb           F	
    So each day would be new I build you to sleep
    C                    D              Bb           F
    That's the idea of dying but you'll just have to see
    C                    D…
  • Bb              F         
    Long afloat on shipless oceans
    Eb              Gm
    I did all my best to smile
    Bb               F
    'Til your singing eyes and fingers
    Eb                Gm
    Drew me loving to your isle
    
    Bb…
  • D            A      G
    Now that the day is come
      D          A      G
    I see myself as everyone
    D           A          G
    I am what's all around me
       D           A          G
    No Nothing, it just cannot be
    D…
  • e -----------19-20-19------16----------------|---------21-20-21----17-18---|
    B --------------------------------16-17-17---|----17-----------------------|
    G ----17-------------------------------------|-----------------------------|
    D…
  • Riff 1
    Everyone reacts through the whole
    Riff 1
    Everyone is just like the shade
    Riff 2
    I've been a spade, I follow
    Riff 2
    According to dark, I'm right
    Riff 1&3
    I've been this space, and I'm hollow
    Riff 1&3
    I'm…
  • Here is the chord progression/bassline/key changes that the song follows:
    
    |  Em  |  Em  |  Bm  |  Am  | bars 1-8 key is G Major// E minor 
    |  Em  |  Em  |  Bm  |  Am  |
    
    |  Dbm |  Dbm |  Abm |  F#m |Bars 9-16 key is…
  • Tuning: Standard
    
    
    | /  slide up
    |   slide down
    | h  hammer-on
    | p  pull-off
    | ~  vibrato
    | +  harmonic
    | x  Mute note
    
    
    Chords used:
    
         C     Em     Dm      F     A#maj
    E -- 3 ---- 7 ---- 3 ---- 1 ---- 6 ----
    B -- 5…
  • G	  D	          Em
    Walk with me through my fanfare
    G	         D	
    It'll ease your mind
    Am		  C
    Set you fine, my baby
    G	  D         Em
    Stay with me every night
    G		 D
    It'll make you come  
    Am			 C
    To where life is…
  • Am                          G
    Made her into mannequin
    Am                          C
    So would have I
    Am             G                F
    I collapse, it's time, it breaks up
    G
    Runs out
    
    Am             G…
  • Intro:
    |--------------|
    |--------------|
    |--8------7----|
    |--8------7----|
    |--6------5----|
    |--------------|
    
    Verse:
    |------------------------------------------------|
    |------------------------------------------------|
    |--8--8--8--8--8--8--8--8--8--8--8--8--8--8------|
    |------------------------------------------------|
    |------------------------------------------------|
    |------------------------------------------------|
    
    
    |------------------------------------------------|
    |--16-16-15-15--------16-16-16-15-15-15----------|
    |--------------15~~---------------------15~~-----|
    |------------------------------------------------|
    |------------------------------------------------|
    |------------------------------------------------|
    
    |------------------------------------------------|
    |--16--16--19--19--------------------------------|
    |------------------15~~~-------------------------|
    |------------------------------------------------|
    |------------------------------------------------|
    |------------------------------------------------|
    
    
    
    Chord…
  • Tuning: standard
    
    e|-----------------------------------------------------------------------------|
    B|-6-----4----6---------2------------------------------------------------------|
    G|-6-----5----6---------3------------------------------------------------------|
    D|-6-----6----8---------4------------------------------------------------------|
    A|-4-----6----8---------4------------------------------------------------------|
    E|-x-----x----x---------x------------------------------------------------------|
    
    Mistakes…
  • G	   C	   G	   C
      You're warning me to get out of the way
    G	   C	    Em	     D7
      Was the safest thing to say
    G	   C        G        C		 G
      This trying to get out of a tight spot
          C	        Em     D
    Isn't even…
  • Gtr I
    |-0-1-0-||------3-----3---1-|-----3-----3-------1--||-1--0-|----|
    |-0-1-0-||o---3-----3-----2-|---3-----3-----3-----o||-1--0-|----|
    |-0-2-2-||----------------3-|-----------------2----||-2--0-|----|
    |-2-3-2-||--3-----2-----0-0-|-3-----2-----0--------||-3--2-|----|
    |-2-3-2-||o-----------------|---------------------o||-3--2-|----|
    |-0-1-0-||------------------|----------------------||-1--0-|----|
    
    
    |-2-5-||--------10------8---7---||--7--|---8--|----|
    |-4-4-||o----12------10-----8-o-||--7--|---8--|----|
    |-4-4-||--------------------9---||--8--|---9--|----|
    |-4-4-||--------------------9---||--9--|--10--|----|
    |-2-2-||o-10-------9------7-7-o-||--9--|--10--|----|
    |-----||------------------------||--7--|---8--|----|…
  • Em - D - Am - D 3x
    Em - D - Am
     
    C - D - G - Bm
    C - D
    Em - D - Am (- C - Am)
    
    Em - D - Am - D 3x
    Em - D - Am
    
    C - D - G - Bm
    C - D
    Em - D - Am (- C - Am)
    
    Em - D - Am - D
    Em - D - Am
    
    C - D - G - Bm
    C -…
  • The A/E is played  x77655
    
    D            A              G
    This precise time and right here
        D         A  G
    Are not going anywhere
         D             A     G
    I've had enough of new todays
             D           A…
  • EADGBe
    
     A            E               F#m
    I can't disguise the things I do 
                 D           A               Bm
    And things I say have a way of hurting you 
    C#m         A
    I'm over there…
  • F#m           Bm             A         E
    I dont know the real from what i thought i saw
    I cant remember where i went, where i was
    
    F#m Bm A E F#m2x
    
    F#m       Bm             A        E  F#m
    I'm gonna move toward a…
  • Am         Bb                     Dm
    Sold    a    hole    to    a    dis-aster.
    
    F                  C              Gm               Dm
    Nail    the    strong    winds    tied    to    a    door
    
    Am           Bb…
  • Capo on 3rd fret.
    
    Verse 1:
    G           D         
    Long afloat on shipless oceans
    C            Em
    I did all my best to smile
    G                D
    'Til your singing eyes and fingers
    C              Em
    Drew me loving…
  • Intro
    
    Bm F#m G
    Bm A G
    Bm F#m G x2
    
    The intro riff goes something like this.....
    E-------------------------------------------|
    B-------------------------------------------|
    G-------------------------------------------|
    D---------------------7/9\7-----------------|
    A-7/9-9-9-12-99-12-99--------9999999--------|
    E-----------------------------------10-9-7--|
    
    E-------------------------------------------|
    B-------------------------------------------|
    G-------------------------------------------|
    D---------------------7/9\7-----------------|
    A-7/9-9-9-12-99-12-99--------9999999--------|
    E-----------------------------------10/7----|
    
    
    Bm…
  • Verse
    
    Eminor                D
    I know Your a slave Kid
    
    Eminor            D
    And You Are my Slut
    
    Eminor             D
    Bleeding Fames Blood
    
    Am
    Youll Be on Both ends
    
    C
    I'll Make it (view Tab Part To play this…
  • Dm  C  E
    
    These are different lives
    
     
    F  C  E 
    
    Like holding on to a whole  
    
    F  C  Dm  Am
    
    Like holding on to a whole
    
     
    Am
    
    
     
    Chorus 
    
    Dm  F  Am  Dm
    
    The world's edge is closer
    
    Dm  F  Am  Dm
    
    I'm…
  • Chords used:
    Fm:       133111
    Ab:       466544
    C#:       x46664
    Eb:       x68886
    Bbm:      x13321
    E:        022100
    F#:       244322
    
    Fm                         C# 
    How do you walk through my wall of sleep
      Bbm…
  • Intro and Verse and Main Piece of Music:
    
    |----------1-0-|
    |--1-1---3-----|
    |--2-2---------|
    |--3-3-3-------|
    |--------------|
    |--------------|
    
    The places where the beat becomes quite stoccato
    and the emphasis…
  • Main Riff
    -----------------------------------------|
    -----------------------------------------|
    --5-5--7-7--8-8----8-8-------8-8--5-5----|
    --5-5--7-7--8-8----8-8--8-8--8-8--5-5----|
    --3-3--5-5--6-6----6-6--8-8--6-6--3-3----|
    ------------------------6-6--------------|
    
    Chorus
    ------------------------|
    ------------------------|
    --5-5-------------------|
    --5-5--5-5--8-8--5-5----|
    --3-3--5-5--8-8--5-5----|
    -------3-3--6-6--3-3----|
    
    End…
  • F#m       D       A         D
    Pain runs through life
    F#m       D       A         D
    Pleasures' other side
    F#m       D                        A         D
    Fear, some say, gives us such long lives
    F#m    D          A…
  • Tuning: Half Step Down
    
    Legend:
    Tablature Legend:
    v: vibrato
    / : slide
    x : mute string
    h : hammer on
    p : pull off
    d: down strumming
    u: up strumming
    ..Chord name.. : it means that the chord or whatever I note in…
  • Intro
     
         |-------------|
         |-------------|
         |-------------|
         |-------------|
         |----8---7----|
         |-------------|
    
         Dm                   C
         Seems like the other day,
         Bb…
  • E||------||---x-----x-----x-----x-----|--x-----x-----x-----x-----|
    B||------||---10----10----10----10----|--8-----8-----8-----8-----|
    G||------||*--10----10----10----10----|--9-----9-----9-----9-----|
    D||------||*--10----10----10----10----|--10----10----10----10----|
    A||------||---8-----8-----8-----8-----|--10----10----10----10----|
    E||------||---x-----x-----x-----x-----|--x-----x-----x-----x-----|
    
    --x----x----x----x----|--x----x----x----x-----||--x----x----x----x----|
    --6----6----6----6----|--6----6----6----6-----||--5----5----5----5----|
    --7----7----7----7----|--7----7----7----7----*||--6----6----6----6----|
    --8----8----8----8----|--8----8----8----8----*||--7----7----7----7----|
    --8----8----8----8----|--8----8----8----8-----||--7----7----7----7----|
    --x----x----x----x----|--x----x----x----x-----||--x----x----x----x----|
    
    --x----x----x----x----|--x----x----x----x----|--x----x----x----x----|
    --5----5----5----5----|--5----5----5----5----|--5----5----5----5----|
    --6----6----6----6----|--6----6----6----6----|--6----6----6----6----|
    --7----7----7----7----|--7----7----7----7----|--7----7----7----7----|
    --7----7----7----7----|--7----7----7----7----|--7----7----7----7----|
    --x----x----x----x----|--x----x----x----x----|--x----x----x----x----|
    
    --x----x----x----x----|--x-----x-----x-----x-----|--x-----x-----x-----x-----|
    --6----6----6----6----|--8-----8-----8-----8-----|--10----10----10----10----|
    --7----7----7----7----|--9-----9-----9-----9-----|--10----10----10----10----|
    --8----8----8----8----|--10----10----10----10----|--10----10----10----10----|
    --8----8----8----8----|--10----10----10----10----|--8-----8-----8-----8-----|
    --x----x----x----x----|--x-----x-----x-----x-----|--x-----x-----x-----x-----|
    
    --x-----x-----x-----x-----|--x-----x-----x-----x-----|--x----x----x----x----|
    --10----10----10----10----|--8-----8-----8-----8-----|--6----6----6----6----|
    --10----10----10----10----|--9-----9-----9-----9-----|--7----7----7----7----|
    --10----10----10----10----|--10----10----10----10----|--8----8----8----8----|
    --8-----8-----8-----8-----|--10----10----10----10----|--8----8----8----8----|
    --x-----x-----x-----x-----|--x-----x-----x-----x-----|--x----x----x----x----|
    
    --x----x----x----x----|--x-----x-----x-----x-----|--x-----x-----x-----x-----|
    --6----6----6----6----|--10----10----10----10----|--8-----8-----8-----8-----|
    --7----7----7----7----|--10----10----10----10----|--9-----9-----9-----9-----|
    --8----8----8----8----|--10----10----10----10----|--10----10----10----10----|
    --8----8----8----8----|--8-----8-----8-----8-----|--10----10----10----10----|
    --x----x----x----x----|--x-----x-----x-----x-----|--x-----x-----x-----x-----|
    
    --x----x----x----x----|--x----x----x----x----|--x----x----x----x----|
    --6----6----6----6----|--6----6----6----6----|--5----5----5----5----|
    --7----7----7----7----|--7----7----7----7----|--6----6----6----6----|
    --8----8----8----8----|--8----8----8----8----|--7----7----7----7----|
    --8----8----8----8----|--8----8----8----8----|--7----7----7----7----|
    --x----x----x----x----|--x----x----x----x----|--x----x----x----x----|
    
    --x----x----x----x----|--x----x----x----x----|--x----x----x----x----|
    --5----5----5----5----|--3----3----3----3----|--3----3----3----3----|
    --6----6----6----6----|--3----3----3----3----|--3----3----3----3----|
    --7----7----7----7----|--3----3----3----3----|--3----3----3----3----|
    --7----7----7----7----|--1----1----1----1----|--1----1----1----1----|
    --x----x----x----x----|--x----x----x----x----|--x----x----x----x----|
    
    --x----x----x----x----|--x----x----x----x----|--x-----x-----x-----x-----|
    --5----5----5----5----|--5----5----5----5----|--10----10----10----10----|
    --5----5----5----5----|--5----5----5----5----|--10----10----10----10----|
    --5----5----5----5----|--5----5----5----5----|--10----10----10----10----|
    --3----3----3----3----|--3----3----3----3----|--8-----8-----8-----8-----|
    --x----x----x----x----|--x----x----x----x----|--x-----x-----x-----x-----|
    
    --x-----x-----x-----x-----||---x-----x-----x-----x-----|
    --10----10----10----10----||---11----11----11----11----|
    --10----10----10----10----||*--12----12----12----12----|
    --10----10----10----10----||*--13----13----13----13----|
    --8-----8-----8-----8-----||---13----13----13----13----|
    --x-----x-----x-----x-----||---x-----x-----x-----x-----|
    
    --x-----x-----x-----x-----|--x-----x-----x-----x-----|
    --11----11----11----11----|--13----13----13----13----|
    --12----12----12----12----|--14----14----14----14----|
    --13----13----13----13----|--15----15----15----15----|
    --13----13----13----13----|--15----15----15----15----|
    --x-----x-----x-----x-----|--x-----x-----x-----x-----|
    
    --x-----x-----x-----x------||---x----x----x----x----|--x----x----x----x----|
    --13----13----13----13-----||---7----7----x----5----|--x----5----5----x----|
    --14----14----14----14----*||*--7----7----x----6----|--x----6----6----x----|
    --15----15----15----15----*||*--7----7----x----7----|--x----7----7----x----|
    --15----15----15----15-----||---5----5----x----7----|--x----7----7----x----|
    --x-----x-----x-----x------||---x----x----x----x----|--x----x----x----x----|
    
    --x----x----x----x----|--x----x----x----x-----||--x----x----x----x----|
    --2----2----x----2----|--x----3----3----3-----||--3----3----3----3----|
    --2----2----x----2----|--x----4----4----4----*||--4----4----4----4----|
    --4----4----x----4----|--x----5----5----5----*||--5----5----5----5----|
    --4----4----x----4----|--x----5----5----5-----||--5----5----5----5----|
    --x----x----x---------|--x----x----x----x-----||--x----x----x----x----|
    
    --x-----x-----x-----x-----|--x-----x-----x-----x-----|--x----x----x----x----|
    --8-----8-----8-----8-----|--8-----8-----8-----8-----|--7----7----7----7----|
    --9-----9-----9-----9-----|--9-----9-----9-----9-----|--7----7----7----7----|
    --10----10----10----10----|--10----10----10----10----|--9----9----9----9----|
    --10----10----10----10----|--10----10----10----10----|--9----9----9----9----|
    --x-----x-----x-----x-----|--x-----x-----x-----x-----|--x----x----x----x----|
    
    --x----x----x----x----|--x-----x-----x-----x-----|--x-----x-----x-----x-----|
    --7----7----7----7----|--8-----8-----8-----8-----|--8-----8-----8-----8-----|
    --7----7----7----7----|--9-----9-----9-----9-----|--9-----9-----9-----9-----|
    --9----9----9----9----|--10----10----10----10----|--10----10----10----10----|
    --9----9----9----9----|--10----10----10----10----|--10----10----10----10----|
    --x----x----x----x----|--x-----x-----x-----x-----|--x-----x-----x-----x-----|
    
    --x----x----x----x----|-------------------|----------------------|
    --8----8----8----8----|--8----------------|------------6---------|
    --9----9----9----9----|--9----------------|----------------------|
    --9----9----9----9----|--9----------------|----------------------|
    --7----7----7----7----|--7----------------|--4----4---------4----|
    --x----x----x----x----|-------------------|----------------------|
    
    ---------------------|----------------------|---------------------|
    --6---------6--------|------------6---------|--6---------6--------|
    ---------------------|----------------------|---------------------|
    ---------------------|----------------------|---------------------|
    -------4-------------|--8----8---------8----|-------8-------------|
    ---------------------|----------------------|---------------------|
    
    ----------------------|---------------------|----------------------|
    ------------6---------|--6---------6--------|------------6---------|
    ----------------------|---------------------|----------------------|
    ----------------------|---------------------|----------------------|
    --4----4---------4----|-------4-------------|--8----8---------8----|
    ----------------------|---------------------|----------------------|
    
    ----------------8--6--|--------x----------x--x--|--------x-------------|
    --6-------------6--6--|--x--x--6----x--x--6--6--|--x--x--6----x--------|
    ----------------------|--x--x--x----x--x--x--x--|--x--x--x----x--------|
    ----------------------|--x--x--x----x--x--x--x--|--x--x--x----x--------|
    -------8--------------|--4--4--x----4--4--x--x--|--4--4--x----4--------|
    ----------------------|--x--x-------x--x--------|--x--x-------x--------|
    
    --------x-----------x---x---|--------x--------------|--------x----------x--x--|
    --x--x--x-----x--x--x---x---|--x--x--x-----x--------|--x--x--6----x--x--6--6--|
    --x--x--10----x--x--10--10--|--x--x--10----x--------|--x--x--x----x--x--x--x--|
    --x--x--x-----x--x--x---x---|--x--x--x-----x--------|--x--x--x----x--x--x--x--|
    --8--8--x-----8--8--x---x---|--8--8--x-----8--------|--4--4--x----4--4--x--x--|
    --x--x--------x--x----------|--x--x--------x--------|--x--x-------x--x--------|
    
    --------x-------------|--------x-----------x---x---|--------x----------x-----|
    --x--x--6----x--------|--x--x--x-----x--x--x---x---|--x--x--x-----x----x-----|
    --x--x--x----x--------|--x--x--10----x--x--10--10--|--x--x--10----x----10r---|
    --x--x--x----x--------|--x--x--x-----x--x--x---x---|--x--x--x-----x----x-----|
    --4--4--x----4--------|--8--8--x-----8--8--x---x---|--8--8--x-----8----x-----|
    --x--x-------x--------|--x--x--------x--x----------|--x--x--------x----------|
    
    --------x----------x--x--|--------x-------------|--------x-----------x---x---|
    --x--x--6----x--x--6--6--|--x--x--6----x--------|--x--x--x-----x--x--x---x---|
    --x--x--x----x--x--x--x--|--x--x--x----x--------|--x--x--10----x--x--10--10--|
    --x--x--x----x--x--x--x--|--x--x--x----x--------|--x--x--x-----x--x--x---x---|
    --4--4--x----4--4--x--x--|--4--4--x----4--------|--8--8--x-----8--8--x---x---|
    --x--x-------x--x--------|--x--x-------x--------|--x--x--------x--x----------|
    
    --------x--------------|--------x----------x--x--|--------x-------------|
    --x--x--x-----x--------|--x--x--6----x--x--6--6--|--x--x--6----x--------|
    --x--x--10----x--------|--x--x--x----x--x--x--x--|--x--x--x----x--------|
    --x--x--x-----x--------|--x--x--x----x--x--x--x--|--x--x--x----x--------|
    --8--8--x-----8--------|--4--4--x----4--4--x--x--|--4--4--x----4--------|
    --x--x--------x--------|--x--x-------x--x--------|--x--x-------x--------|
    
    --------x-----------x---x---|--------x--------------||------------------------||
    --x--x--x-----x--x--x---x---|--x--x--x-----x--------||-------------7----------||
    --x--x--10----x--x--10--10--|--x--x--10----x--------||*-----------------9----*||
    --x--x--x-----x--x--x---x---|--x--x--x-----x--------||*-------9--------------*||
    --8--8--x-----8--8--x---x---|--8--8--x-----8--------||---7--------------------||
    --x--x--------x--x----------|--x--x--------x--------||------------------------||…
  • Standard Tuning (EADGBe)
    
    Chords Used:
    A     (577655)
    E     (779997)
    Bm    (799777)
    D     (557775)
    F#m   (9 11 11 10 9 9)
    E2    (022100)
    C#    (9 11 11 - - ---)
    B     (799------------)
    
    A                E
    A…
  • Verse:
    Bb        B           Bb
    Evened it out all along 
            Abm
    sailing outdoors
    
    Chorus:
           F#        C#      Abm
    By the sun came thru the shore
        F#   C#        Abm
    now I'll lying in doors…
  • I know this song contains 2 guitars 
    but I've tabbed it like this so you can play this song on your own.
    
    e|--------------------------------------------14--16--14--12--11--12-------|
    B|--------------------------12--14-----------------------------------12—---|
    G|-------11------------9-----------11-/-13~~----------------------------13-|
    D|----------13--14------------------------13----------------9--------------|
    A|----11-----------14------------------------------------------------------|
    E|-12------------------9------------------11----------------9--------------|…
  • right, first few chords;;G,D,Am,Em
    
    then it goes;;Bm,G,,,C,,D,Am   Bm,G,,,C,,D,Am,,C,D,Am
    
    now,i'm gonna make some sense out of this,i'm gonna write up the lyrics and chords.
    
    G     D         Am     Em
    you know i'm…
  • Intro
    C#m  E x2
    
    Verse
    C#m                                       E
       I need a taste, I can almost face myself
    C#m                                           E
       There is a way, a never-ending pavement cast
    C#m…
  • C x32010 or x35553
    G 320003 or 355433
    E 022100
    D xx0232 or x57775
    A x02220 or 577655
    
    I prefere the alternative chords, the way John plays it aswell.
    
    Intro
    -----
    C - G - E (x4) 
    D - E (x4) 
    
    Verse
    -----
    
    C…
  • Intro: (4/8) Bb  C (6/8) D- x2
    
    (4/8) Bb  C (6/8) D-
                               Everyone speaks at the same time 
    (4/8) Bb  C (6/8) D-
                               Everyone wonders who am I
    (4/8) Bb  C (6/8) F…
  • Intro:
    Em - G 4x
    
    Verses:
    Bm - F#m - A - Em 2x
    D - A - Em 2x
    G - D - Em 5x
    G - D - Bm - C
    
    Outro:
    Em D C 3x
    then: G D C
    repeat this a few times
  • b = bend
    ~ = let ring
    rb= release bend
    
    Chords used:
    
    Am -02210
    
    F  133211
    
    C  -32010
    
    G  320033
    
    G7 320001
    
    Dm --0231
    
    Intro:
    Am       F      C       G       x2
    
    Guitar 2:(comes in around second measure)
    Am…
  • Bm - A - G
    We tried lasting a moment
    Bm - A - G
    three lies open the door
    Em - G - D
    we've seen the reflection
    Em - G - D
    takes my heart away
    
    Bm - A - G
    We fight in around them
    Bm - A - G
    you faded all the way
    Em…
  • Verse:
    
    {----5----0----3------}
    {---5----0----3-----3-}
    {--5----0----4-----2--}    play it 8 times
    {-7----2----5-----4---}
    {----------------5----}
    {---------------------}
    
    
    Chorus:
    
    {----10-----------12----7------10----------12-----}
    {---10-----10----13----8------10----10----13----8-}
    {--9------10----12----7------9-----10----12----9--}…
  • Fm                Cm
    The scratches of a dark night
    Fm            Cm
    The rashes of foresight
    A#     A#m
    And I wanted you
    D#      Fm
    ooh-hoo-ooh
    
    Fm               D#
    The weight of my freezin'
    C#             Fm
    I…
  • Tuning: Standard
    
               Bb         F      Cm
    I've got a million to choose from
              Bb                F   Cm
    A million ways things could be
            Bb        F    Cm
    In dull moments I feel like…
  • Chords used
    
      Bb  G   D   F    E
    E-------------------------------|
    B-------------------------------|
    G-3-------7---10---9------------|
    D-3---5---7---10---9------------|
    A-1---5---5---8----7------------|
    E-----3-------------------------|…
  • Tune down 1/2 step
    
    ------------------------------------------------------------------------------
    ------------------------------------------------------------------------------
    -----4-----4---------2-----2---------4-----4-------2-------4-------6-----6----
    ---2-----2-----2---2-----2-----2---2-----2---2---2---2---4---4---6---6--------
    -0-----0-----0---0-----0-----0---0-----0-------0-------2-------4-------4---4--
    ------------------------------------------------------------------------------
    (0:00)
    
    -----------------------------------4------------------------------------------
    -------5-------------4--4--------4----4-5-----------------------2-------------
    -4----------4------6------6----6---------------4-----4----------2----2--------
    -----6----6------6---------------------------2---2-----2------2----2----------
    ---4-----------4-------------4-------------0-------0-----0--0-----------------
    ------------------------------------------------------------------------------
    (0:15)
    
    ------------------------------------------------------------------------------
    -------------------------------------------------4-----5----5h7p5-------------
    -----2-----4------1h2------3h4-------6-------6-----6-----6------------6-----6-
    ---2-----2------2--------4---------6---6---6---------6--------------6-----6---
    -0-----0------0--------2---------4-------4-----4------------------4-----4-----
    ------------------------------------------------------------------------------
    (0:31)
    
    ------------------------------------------------------------------------------
    -7--5--4----------------------------------------------------------------------
    ---------6-4------6--------4---------2---------2-----4-----6--------4------2--
    ----------------6--------4---------2---------2-----4-----6--------4------2----
    --------------4--------2---------0---------0-----2-----4--------2------0------
    ------------------------------------------------------------------------------
    (0:47)
    
    ------------------------------------------------------------------------------
    -------2-------2--------------------------------------------------------------
    -------2-------2--------6-----6---6------4-------4-----2---2---2-----2-2------
    -----2-------4--------6---6------------4-----4-------2-------------2-----2----
    ---0-------2--------4-------4---4----2-----2---2---0-----0---0---0------------
    ------------------------------------------------------------------------------
    (1:14)
    
    ------------------------------------------------------------------------------
    --------------------6--4--------------2---------------------------------------
    -----------------6--------6--4---4-4---------2-----------------------4----4---
    ----4---------6----------------------------2----------2---2---2----2--------2-
    --2-----2---4------------------2---------0----------0---2---0----0------0-----
    ------2-----------------------------------------------------------------------
    (1:29)
    
    ------------------------------------------------------------------------------
    ----------------2-2--2b--------------------------------------4-------------4--
    -----2----2---2--------------4-----4---4---2-2-------4-------6---6-6-6---6----
    ---2----2---2--------------4---4-----4---------2---4---4---6---6-------6------
    -0-----------------------2-------2---------------2-------4--------------------
    ------------------------------------------------------------------------------
    (1:47)
    
    -------------------------5-4--7-----------------------------------------------
    ---7-5---------------------------4-5------------------------------------------
    -6----------6-----6------------------------4-----4-------2-----------4-----4--
    ----------6-----6------6-----------------2-----2---2---2---2-------2-----2----
    --------4-----4------4-----------------0-----0-------0-----------0-----0------
    ------------------------------------------------------------------------------
    (2:01)
    
    -----------4------------------------------------------------------------------
    ----------------------------4h5p4----------------7-5-----7-5-7-5--------------
    -----2-----------6---6--6--------------6-----6-------------------------4------
    ---2-----4-----6---6------6----------6-----6-----------6----------------------
    -0-----2-----4---------------------4-----4-----------4-----------4----\2------
    ------------------------------------------------------------------------------
    (2:19)
    
    ----------------4-----------------7------7------------------------------------
    ---------------------------------------------------------------------------9--
    --2---2----4----6------4------------------------------------------------------
    ------2----4----6------4-------7------9----------11-----11----11------9--9----
    -\0---0----2----4------2-------7------9-------11-----11----11-------9---------
    -------------------------------5------7-----9---------------------7-----------
    (2:41)
    
    ------------------------------------------------------------------------------
    -----5-------5----------------------------------------------------------------
    ------------------------------------------------------------------------------
    ---7---7---7------------------7-7---7-------7-7---7-----------9-9-------------
    -7-------7--------6-6-6-----7-----7---7---7-----7---7-----9-9-----9-9---------
    ----------------4---------5-------------5-------------7-7--------------7-7----
    (3:06)
    
    ------------------------------------------------------------------------------
    ----------------------------------------------------------------------9-8-7---
    -----------------------------9-9----------------------------------------------
    -----9-9--------9-----9---------------9-9--9-------7-7----------9-9-----------
    -9-9-----9-9---------------11-------9------------7--------7---9---------------
    --------------7----7-----9--------7------------5------------7-----------------
    (3:20)
    
    ---------------------------------------5--------------------------------------
    ---------------------------------4--5-----------------------------------------
    -6-----6-------6------4-----4-----------------4-4-----------------------------
    -6-----6-------6------4-----4-------------------------------------------------
    -4-----4-------4------2-----2---------------2---------------------------------
    ------------------------------------------------------------------------------
    (3:37)
    
    ---------------------------------------|--------------------------------------
    -/-------------------------------------|-------9-9----------------------------
    -/------9------------------------------|-------9-9--------9---------------6---
    -/----9---9--------9-9--------11-------|-----9-----9------9---------7---7-----
    -/--7-------7----9------9--------11----|---7------------9---9-----7---7-------
    ---------------7------------9-------9--|--------------7---------5-------------
    (3:52)…
  • these two parts are played througout the whole song, with some little variations that 
    could figure out for phrase 2.  i use a capo on the 6th fret cause its just easier, and it 
    better to have the strings ringing out…
  • Intro:
    -------10----------10----------10----------10------|
    ---10----10----10----10----10----10----10----10—---|
    12----------12----------12----------12-------------|
    ---------------------------------------------------|
    ---------------------------------------------------|
    ---------------------------------------------------|
    
    -------8-----------8-----------8-----------8-------|
    ---10----10----10----10----10----10----10----10—---|
    12----------12----------12----------12-------------|…
  • Gm                                            Bb
    There's a powdered sun dripping through a porthole
    Cm           D#
    In a set design
    A#                   F
    Can you read your name?
          Cm…
  • Cm         Gm   G#             Gm
    Crawled into my window breath
    Cm          G#   Bbm
    suck a cock and I'll be
    G#         Eb          Bbm         G#
    these will be, without staying the money
    G#       Eb   Cm
    one loves…
  • Several guitars arranged for one.
    ------------------0----------------------------------------------
    -0---------------------------0---0---0---0----0------------------
    ---2p0-0-----------------------3---3---3---3----2p0-0------------
    -------2--------------------------------------------2------------
    -----------------------------------------------------------------
    ---------(x)(x)(x)--(x)(x)(x)-------------------------(x)(x)(x)--
    
    ------------------------------------------------------0--
    ----------0---0---0---0----0-----3----------3-3-3-3-3---0
    ------------3---3---3---3----2p0-------------------------
    -----------------------------------(x)(x)(x)-------------
    ---------------------------------------------------------
    -(x)(x)(x)-----------------------------------------------
    
    (I…
  • Tuning: EADGBe (Standard)
    
    Intro:
    Gm    Bb   (2x)
    
    Gm
    Where you are
    
                Bb
    The real assembly
    
    Gm
    Of all
    
                         Bb
    The shapes, they're trembling
    
    Cm                             Eb
    It's…
  • chords | strings
             654321
             ||||||
    D7M      -57675
    C#m7     -46454
    Bm7      -24232
    A6       -02222
    D        -5777-
    C#m      -46654
    Bm       -24432
    C        -3555-
    G        355433
    A        577655
    
    
    D7M…
  • Am                   Em       F        C
    
    I was holding on to what just goes and goes
    
    G        F
    
    abscence won't change
    
    Am                  Em          F         C
    
    Memories can be the chains that won't let go
    
    G…
  • Tuning:standard
    
    The guitar part on this song kicks in at 0:23seconds for whatever
    reason i started tabbing at 0:39 but its more or less repetative
    anyway. there are some bars that are overdubbed with another guitar
    playing…
  • - use muted strings
    - standart tuning
    
                //play this chord          
    E||-------|--2-----2----2----2----|--2-------2-----------|
    B||-------|--2-----2----2----2----|--2h5p2---2-----------|
    G||-------|--2-----2----2----2----|--2-------2-----------|
    D||-------|--4-----4----4----4----|--4-------4--4--4s11--|
    A||-------|--5-----5----5----5----|--5-------5--5--5-----|
    E||-------|--2-----2----2----2----|--2-------2--2--2s9---|…
  • Important: (!) Drop D Tuning (!)
    
    
    
    
    Part 1
    
    
    Gtr 1
         Bm      F#    G       D             Bm      F#    G         D
    ||--------------------------------------|----------------------------2---2--|
    ||-o-------7-----2---------3------------|--------7-----2---------3----------|
    ||-------7-------3-------4-------2------|------7-------3-------4------------|
    ||-----9-------4---4---5---------4------|----9-------4---4---5-------0---0--|
    ||-o---------------------------5---5----|-----------------------------------|
    ||---9-------4-------5-------0----------|--9-------4-------5----------------|…
  • B          F#      G#m
    These don't have a name
    
                B         F#          G#m
    I've been a fool to let it out that way
    
               C#m            G#m
    And it'll keep on coming back
    
    
     B     F#           G#m
    A…
  • E||-------------------|--------------------------|-------0----------------|
    B||-------------------|--------------------1-----|------------------1b----|
    G||--2----------------|--------2--------------0--|--2-------2----2-----0--|
    D||-------------------|--0--0-----2--3--3--------|------------------------|
    A||-------------------|--------------------------|------------------------|
    E||-------------------|--------------------------|------------------------|…
  • Verse:
    G               D      Em
    walk with me, through my fanfare
    G               D      Am                     C
    and ease your mind,  since you find my baby
    stay with me, every night
    i'll make you come, to where light…
  • Tuning: EADGBe
    
    Intro
    Em F#m G F#m
    
    Verse I
    Em   F#m G
    Please    
    F#m         Em F#m G F#m
    Open your eyes
    Em  F#m G 
    Time      
    F#m     Em F#m G F#m
    To realize
    Am Bm          C
    I found out today
    
    Chorus
    D…
  • Tuning:
    Bm	    D	    A		        Em
    All of it's phased, come on with a fast pace
    Bm	     A		Em
    life you're showing of
    Bm	        D                  A	     Em
    You've aged yourself and blaimed a murderer, you are
    G…
  • F          A#
    come as you are 
    F           A#
    have some wine 
    F           A#   G#  A# G#
    and some coffee
    F            A#
    come as you are
    F       A#
    have a gun
             C#      D#
    answer me my baby
    
    
    F…
  • Bm     A   E  (2x)
    
     Bm         A        E
    Empty your half and mind
     Bm       A     E
    Wait on, erase time
     G                       E
    There's bound to be too many
                       A       Bm       A    E  
    (?Crawl…
  • ----2---2---4---------------------------|
    ----2---2---3---3---2----2-----2--------|
    ----2---2---2---4---4----4-----2--6--1--|
    ----4---2---0---4---4----4-----2--7--2--|
    ----------------2---0----------0--7--2--|
    -------------------------4--------5--0--|…
  • Strum Bm at the start...
    
    --------|---------------------------|----------------------|------------------|
    -----7--|-------10-------10------7--|-------10------10--7--|--Strum--------7--|
    ---7----|----11--------9-------7----|----11-------9-----7--|---Bm--------7----|
    -9------|-12--------11-------9------|-12-------11-------9--|-----------9------|
    --------|---------------------------|----------------------|------------------|
    --------|---------------------------|----------------------|------------------|
    
    
    ---------------------------|----------------------|----------------------------|
    -------10-------10------7--|-------10------10--7--|--Strum…
  • Bm
    E|-------------------------------------------------------|
    B|-o--------------7-------------------------7------------|
    G|-------------------------------------------------------|
    D|-------------9--------9----------------9--------9------|
    A|-o--------9--------9----------------9--------9---------|
    E|---7--10-----------------10--7--10-----------------10--|…
  • Capo 3rd Fret
    
     C                                G/B
     |       |       |       |        |       |       |       |
    |--------------------------------|--------------------------------|
    |------------1---------------1---|------------3---------------3---|
    |----0---------------0-----------|----0---------------0-----------|
    |--------2---------------2-------|--------0---------------0-------|
    |3---------------3---------------|2---------------2---------------|
    |--------------------------------|--------------------------------|
    
    
    Am7…
  • F#m           A      F#m 
    Hannah go leap your bar
    F#m            A      F#m
    This is how right you are
    F#m      A    F#m
    I'm in a way it seems
    F#m           A      F#m
    People are cold and mean
    
    D E F#m
    
    E
    In the…
  • Main Riff:
    -|-----------------------------------------|
    -|-----------------------------------------|
    -|-----------------------------------------|
    -|-----------------------------------------|
    -|----2---4------------2---4---------------|
    -|-3---------0-----3----------0------------|
    
    Em…
  • Tuning: EADGBe
    
    A                E C#m
    I didn't lose you
    A                        E C#m
    And those fights I fought
    D        A        G
    I don't owe anyone
    A                     E C#m
    And sleeping all night
    A…
  • Intro
    
    B F# Gm 2X
    
    *The E7M   is played on the fourth fret
    
    
    Verse
    
    B           F#         Abm         E7M  
    
    And we will show that wherever you are
    
    B            E         B
    
    that is where all time starts
    
    B…
  • Tuning: C# F# B E G# C# (One and A half steps down)
    
    Intro: G7 C7M   F E  Esus4  E  Esus4  E
    
    A7       D7         A7          D7             G7                    C7M    
    Helen around you has nothing to do, with those…
  • figure out the rhythm by yourself
    
    part 1
    E-----------------------|
    B-----------------------|
    G-----------------------|
    D-----9-9---9-9---9-9---|  4x
    A-7-7-----7-----7-----7-|
    E-----------------------|
     
    
      No…
  • A Better and Easier way to play the song is to drop tuning on the strings to
        D-G-C-F-A-D, and play
    
        C                A7           Dm9               G
    if ya colse the door the night could last forever
    
        C…
  • Tuning:                         Riff 1
    
    e|---------------------------------------------------------------------------|
    B|--------5----------------------------------5---------4---------4-----------|
    G|--------6-------------------------6-----------6----------6-----------------|
    D|--------6-----------------------------6----------6----------6--------------|
    A|--------4---------------------4--------------------------------------------|
    E|---------------------------------------------------------------------------|…
  • Played with the neck pickup, tone knob rolled 3/4 back and played with a very tight clean sound.
    
    e|----------------------------------------------------------------------------|
    B|----------------------------------------------------------------------------|
    G|----------------------------------------------------------------------------|
    D|-14/12/14~--12--9--17--14--9~--9/13~/9--9/14/9--9--9--9--9/17/16--14--14----|
    A|----------------------------------------------------------------------------|
    E|----------------------------------------------------------------------------|
    
    e|----------------------------------------------------------------------------|
    B|----------------------------------------------------------------------------|
    G|----------------------------------------------------------------------------|
    D|-14/13--13/16~--11/13/11--9--9~--12/14--9~--9/17/16--14--14--14/13--13/16~--|
    A|----------------------------------------------------------------------------|
    E|----------------------------------------------------------------------------|
    
    e|----------------------------------------------------------------------------|
    B|----------------------------------------------------------------------------|
    G|---------------------------21--21--21--20~----------------------------------|
    D|-16/19~--/19--21~--21--21-------------------21b23r21b23~--/21~--21/16--16---|
    A|----------------------------------------------------------------------------|
    E|----------------------------------------------------------------------------|
    
    
    e|----------------------------------------------------------------------------|
    B|----------------------------------------------------------------------------|
    G|----------------------------------------------------------------------------|
    D|-16--16--16--16/17/16~--11/13~--9--9~--9/14/9--9--9--9--9/17/16--14--14-----|
    A|----------------------------------------------------------------------------|
    E|----------------------------------------------------------------------------|
    
    e|----------------------------------------------------------------------------|
    B|----------------------------------------------------------------------------|
    G|--------------------------------------------------------------20------------|
    D|-14/13--13/16~--9/11~--9~--9/14~--14/16~--16/17~--17--17/21~------19/21--21-|
    A|----------------------------------------------------------------------------|
    E|----------------------------------------------------------------------------|
    
    e|----------------------------------------------------------------------------|
    B|----------------------------------------------------------------------------|
    G|----------------------------------------------------------------------------|
    D|-21--21/16--16--16--16/14--14--16/17/16--11/13~/11--9--9/14/9--9--9--9p7h9--|
    A|----------------------------------------------------------------------------|
    E|----------------------------------------------------------------------------|
    
    e|----------------------------------------------------------------------------|
    B|----------------------------------------------------------------------------|
    G|----------------------------------------------------------------------------|
    D|-9--9--9--9/13--4~--4/7~--7/9~--9--9--9--9--9/14--14--14--14--14/13--13/16~-|
    A|----------------------------------------------------------------------------|
    E|----------------------------------------------------------------------------|
    
    e|----------------------------------------------------------------------------|
    B|----------------------------------------------------------------------------|
    G|----------------------------------------------------------------------------|
    D|-16/19~--19/21--21~--21--16/14~/16~-----------------------------------------|
    A|----------------------------------------------------------------------------|
    E|----------------------------------------------------------------------------|…
  • -akward tuning moments lol-
    ----1---1--------------------------------------------0-----1---1--|
    --------------3---3---3--------------------0--0-0--0--------------|
    -----------------------------------0----0--4--4-4-----------------|
    -0----0---------------------0-0--0-5--5-5---------------0----0----|
    -----------1----1-----1--0--5-5--5--------------------------------|
    -------------------------5----------------------------------------|
    
    
    -----1---1------------------5---5-------------------1---1---------------5---5-|
    -----------------3---3-------------------5---5---------------3---3------------|
    ------------------------------------------------------------------------------|
    ---0---0------------------3---3-------------------0---0---------------3---3---|
    ---------------1---1-------------------3---3---------------1---1--------------|
    ------------------------------------------------------------------------------|…
  • Example 1                      Example 1, in five
          Q         Q    Q    Q    99x   Q                  Q    Q    Q
    E||-----------------------------||-------------------------------------|
    B||-----------------------------||-------------------------------------|
    G||*---------------------------*||*------------------------------------|
    D||*----------------------3----*||*-------------------------------3----|
    A||---3---------5----7----------||---3------------------5----7---------|
    E||-----------------------------||-------------------------------------|…
  • E        D            A
    There is snake in the water
               F        G         Am
    Cuz when I open my front door I
                F G   F
    I can't see a-ny-thing
    F   G    Am
    I can't see
    Am          F  G  F
    I can't…
  • X2
    -|------------------------------|----------------------|----------------------
    -|-13------9-------11-----8-----|--8------4-----3------|-3-----4-----3/6------
    -|-13------10------12-----8-----|--8------5-----3------|-3-----5-----3/6------
    -|-15------11------13-----10----|--10-----5-----3------|-5-----5-----3/6------
    -|-15------11------13-----10----|--10-----3-----1------|-5-----3-----1/4------
    -|-13------9-------11-----8-----|--8-------------------|-3--------------------
    
    know…
  • Fm    Eb    Db    C     Ab  Gbmin   E     B     A     Ab
    --8--|--6--|--4--|--3--|--4--|--9--|--7--|--7--|--5--|--4--|
    --9--|--8--|--6--|--5--|--4--|-10--|--9--|--7--|--5--|--4--|
    -10--|--8--|--6--|--5--|--5--|-11--|--9--|--8--|--6--|--5--|
    -10--|--8--|--6--|--5--|--6--|-11--|--9--|--9--|--7--|--6--|
    --8--|--6--|--4--|--3--|--6--|--9--|--7--|--9--|--7--|--6--|
    -----|-----|-----|-----|--4--|-----|-----|--7--|--5--|--4--|…
  • Q=125
    
      E  E E  Q   E Q    E  E  E  E  E  E  E  E
    |------------------|------------------------|
    |------------------|---10-10-10-10-10-10-10-|
    |------8--------8--|---10-10-10-10-10-10-10-|
    |------8--------8--|-x-10-10-10-10-10-10-10-|
    |------------------|-x--8--8--8--8--8--8--8-|
    |-8h10---10--10----|-x----------------------|…
  • MAIN RIFF
    |(6)-(6)--(4)(4)--6-|--------------
    |(6)-(6)--(4)(4)--6-|--6-6-6-6-6-6-
    |(6)-(6)--(5)(5)--6-|--------------
    |-8---8----6--6---8-|--------------
    |-8---8----6--6---8-|--------------
    |-6---6----4--4---6-|--------------
    
    
    |(6)-(6)--(4)(4)--6-|-------------
    |(6)-(6)--(4)(4)--6-|--6-6-6-6----
    |(6)-(6)--(5)(5)--6-|-------------
    |-8---8----6--6---8-|-------------
    |-8---8----6--6---8-|-------------
    |-6---6----4--4---6-|-------------
    
    
    Up-tempo…
  • Hm   F#m    A     E
    --7--|--2--|--5--|--0--|
    --7--|--2--|--5--|--0--|
    --7--|--2--|--6--|--1--|
    --9--|--4--|--7--|--2--|
    --9--|--4--|--7--|--2--|
    --7--|--2--|--5--|--0--|
    
    
    
      G     D     A
    --3--|--2--|--0--|
    --0--|--3--|--3--|
    --0--|--2--|--3--|
    --0--|--0--|--3--|
    --2--|--0--|--0--|
    --3--|--0--|--0--|…
  • =0:00=
    Riff A.1                    A.2
    E||----5-------------------|----5---------------------|
    B||--------------5----5h7--|--------------5------5h7--|
    G||---------6--------------|---------6----------------|
    D||--4----4----------------|--4----4------------------|
    A||-----------4-----4------|-----------4-----4/5------|
    E||------------------------|--------------------------|
    
    =0:24=
    Chords:…
  • Chords you may not know:
    
         Fsus4          Ddim           Gaug
    |--1-----(8)---|------x------|-----------4---|
    |--1------11---|------6------|--(8)------5---|
    |--3------10---|------7------|---8-------5---|
    |--3--or--10---|------6------|---9---or--6---|
    |--3------8----|------5------|---10------x---|
    |--x------x----|------x------|-----------x---|…
  • INTRO.
    E---------------------------------------------------------------------------------------16---|
    B---16---19---16------------------------------------------------------15---------------------|
    G---------------------18---16---18p16~13---13---13---13---13-------13---13-------------------|
    D--------------------------------------------------------------------------------------------|
    A--------------------------------------------------------------------------------------------|
    E--------------------------------------------------------------------------------------------|
    
    E---14---------------------------------------------------------------------------------------|
    B-------16-----------------------------------------------------------------------------------|
    G------------16---12---13---16---16---15---13------------------------------------------------|
    D--------------------------------------------------------------------------------------------|
    A--------------------------------------------------------------------------------------------|
    E--------------------------------------------------------------------------------------------|
    
    
    VERSE
    
    E-------16----------------16---------------------16------------------------------------------|
    B------------16-----------------16----------------------16-----------------------------------|
    G---13-------------13---------------------13---------------------16-----15----13-------------|
    D--------------------------------------------------------------------------------------------|
    A--------------------------------------------------------------------------------------------|
    E--------------------------------------------------------------------------------------------|
    
    Chorus
    
    E--------------------------------------------------------------------------------------------|
    B---12---10---12---10---12---10---10~~17-17-17-17-17-17---19-19-19-19-19-19------------------|
    G--------------------------------------------------------------------------------------------|
    D--------------------------------------------------------------------------------------------|
    A--------------------------------------------------------------------------------------------|
    E--------------------------------------------------------------------------------------------|
    
    E-------16--------------16-------------------------------------------------------------------|
    B-----------16----------------16---14---16---------------------------------------------------|
    G---13-----------13----------------------------16---15---13----------------------------------|
    D--------------------------------------------------------------------------------------------|
    A--------------------------------------------------------------------------------------------|
    E--------------------------------------------------------------------------------------------|
    
    INSTRUMENTAL:
    
    E---19---18---16---16------------------------------------------------------------------------|
    B--------------------------19---16--------16-------------------------------------------------|
    G-------------------------------------16------------------16---15---13-----------------------|
    D--------------------------------------------------------------------------------------------|
    A--------------------------------------------------------------------------------------------|
    E--------------------------------------------------------------------------------------------|
    _______________________________________________________________________________________________
    
    Intro:
    Play…
  • Intro:  | Em  G | D  C | G  D | Cmaj7 | Em G | D C | G D | Em |
    
    Em      G                           D      C                    G
    This flower is scorched.  This film is on, on a maddening loop.
             D     Cmaj7…
  • e|---------------------------------------------------------------------------|
    B|--------15-----------------------------------------------------------------|
    G|-----------14-12-12---X2---------------------------------------------------|
    D|-12h14-------------------12-12h14-12-12-12-12h14---------------------------|
    A|---------------------------------------------------------------------------|
    E|---------------------------------------------------------------------------|
    
    e|----------------------------------------------------------------------19---|
    B|----------15---------------17-17-17-17-19-15------------on…
  • Tune down 1/2 step
    
    
     C                                 G            Am     F
    Could you think of a better way,
    
     C                                        G     Am  
    To be even scared in the skyway.…
  • A               E  
    Anne you can't hide
        F#m         D
    you know we'll find you
           A             E  
    It's a matter where pride 
         F#m       D
    flies out the window
    
    Dm      Gm/Bb     Bb        A
    I never…
Наверх