Аккорды Johnny Cash - You Are My Sunshine

Добавлено: @vitos
Дата добавления: 30 Июня 2016г.
Рейтинг:
0.0
Просмотров: 356
Транспонировать - +
Tuning: C A D G B E


E ----------------------------------------------------------------------------
B ----------------------------------------------------------------------------
G --5--7--9--12--12--12--9-10--9--5--5--7--9--12--12--12--14--12--9--5--7--9--
D ----------------------------------------------------------------------------
A --3--5--7--10--10--10--7--8--7--3--3--5--7--10--10--10--12--10--7--3--5--7--
C --0--0--0---0---0---0--0--0--0--0--0--0--0---0---0---0---0---0--0--0--0--0--

E --------------------------------------------------
B --------------------------------------------------
G --12--12--12--9-10--9--5--5--7--9-10-10--9--7--5--
D --------------------------------------------------
A --10--10--10--7--8--7--3--3--5--7--8--8--7--5--3--
C ---0---0---0--0--0--0--0--0--0--0--0--0--0--0--0--
Наверх