Аккорды Kari Kimmel - Black

Добавлено: @romashka
Дата добавления: 31 Октября 2017г.
Рейтинг:
0.0
Просмотров: 283
Транспонировать - +
Intro: x2
e|------------------------------------------------------------------------|
B|------------------------------------------------------------------------|
G|----------0------------------0---------------------0--------------------|
D|-----0h2----2-0h2-------0h2-----2--0h2--------0h2-----2--0h2------------|
A|-----------------------------------------0-0----------------------------|
E|-0-0----------------3-3---------------------------------------0---------|

Verse 1:
Em
When everything is turned to black
G
You don't know where to go
A
You need something
                Em
To justify your soul

Verse 2: 
Em
Silence is broken
G
Confidence is gone
A
Everything you're
                Em
Holding on to falls

Intro: x2
e|------------------------------------------------------------------------|
B|------------------------------------------------------------------------|
G|----------0------------------0---------------------0--------------------|
D|-----0h2----2-0h2-------0h2-----2--0h2--------0h2-----2--0h2------------|
A|-----------------------------------------0-0----------------------------|
E|-0-0----------------3-3---------------------------------------0---------|

Verse 3: 
Em
All the people selling truths
G
On every corner now
A
They wait until the fears
                Em
Has knocked you down

Verse 4:
Em
All the rules are changing now
G
You?re living in sin
A
Everything around you 
          Em
is caving in

Pre-Chorus:
G
All you're holding on to
                     C
Slipping like water through your hands

Intro: x2
e|------------------------------------------------------------------------|
B|------------------------------------------------------------------------|
G|----------0------------------0---------------------0--------------------|
D|-----0h2----2-0h2-------0h2-----2--0h2--------0h2-----2--0h2------------|
A|-----------------------------------------0-0----------------------------|
E|-0-0----------------3-3---------------------------------------0---------|

Chorus: 
Em      G     A       Em
And you sing  La la la la }x3
Em      G     A       Em
Ya you sing  La la la la }x3

Verse 5: 
Em
Far off in the distance
G
Somewhere you can't see
A
Allegiances have formed 
         Em
your destiny

Verse 6: 
Em
Opposition all around
G
Feeding off your soul
A
Trying hard 
                Em
to swallow up you whole

Pre-Chorus: 
G
And the demons all around you waiting
                     C
For you to sell your soul

Chorus: x2
Em      G     A       Em
And you sing  La la la la }x3
Em      G     A       Em
Ya you sing  La la la la }x3
Наверх