Аккорды KillaGram - Кто ты?

Добавлено: @romashka
Дата добавления: 26 Апреля 2018г.
Рейтинг:
0.0
Просмотров: 39
Транспонировать - +
Основной перебор играется по аккорду на строку: C Am Em Em 
и заново.

e|-------0-----0----------------------
B|---------1-----1---------1-----1----
G|-----0-----0-----------2---2-----2--
D|---2-----------------2-------2------
A|-3-----------------0----------------
E|------------------------------------

e|------------------------------------
B|-------0-----0-----------0-----0----
G|---------0-----0-----------0-----0--
D|-----2-----2-----------2-----2------
A|---2-----------------2--------------
E|-0-----------------0----------------

C
Кто ты такой, чтоб учить меня жизни
Am
Как проще наебать, как больше спиздить
Em
За совет спасибо, но учить - постой
Em
Кто ты?! (Кто ты такой)

C
Кто ты такой, чтобы лезть ко мне в душу
Am
Грузить хуйней, лить говно в уши
Em
Его и так хватает, оно течёт рекой
Em
Кто ты?! (Кто ты такой)

C
Кто ты такой, чтобы применять силу
Am
Пихать в спину, Гнать как скотину
Em
Я далеко не бык, а ты не ковбой
Em
Кто ты?! (Кто ты такой)

C
Кто ты такой, чтобы призывать к ответу
Am
Покаяться, пока не отключили свет
Em
Если отвечу, то уж точно не перед тобой
Em
Кто ты?! (Кто ты такой)

C
Кто ты такой, чтобы оголять клыки
Am
Скалить зубы, вешать ярлыки?!
Em
Наверное легко быть смелым когда далеко
Em
Кто ты?! (Кто ты такой)
comments powered by Disqus
Наверх