Аккорды Кирпичи - Сколько из окна?

Добавлено: @romashka
Дата добавления: 24 Мая 2013г.
Рейтинг:
5.0
Просмотров: 178
Транспонировать - +
Bass:

и так далее... 

G----------------------------||
D----------------------------||
A||--------3h-----------------------------|--------3h------------||
E||--3h-5-----5--5----5--5--|--5----5--5--5--5--5--5--|--3h-5-----5----------||


Сколько народа упало из окна ?

G--------------------------||
D--------------------------||
A||--4----4--4--4--4--4--3--|----3--3--3--3--3-----------------||
E---------------|--5--5--------5--5----||


Guitar: 
C# C A
E--------------------------||
B--------------------------||
G||--6----6--6--6--6--6--5--|----5--5--5--5--5-----------------||
D||--6----6--6--6--6--6--5--|----5--5--5--5--5------|--7--7--------7--7----||
A||--4----4--4--4--4--4--3--|----3--3--3--3--3------|--7--7--------7--7----||
E---------------|--5--5--------5--5----||

comments powered by Disqus
Наверх