Аккорды Клава Кока - Влюблена в МДК

Добавлено: @romashka
Дата добавления: 18 Июня 2020г.
Рейтинг:
0.0
Просмотров: 41
Транспонировать - +
Вступление:
   A          G#         C#m                 B      
1)---------X----------X----------X------------------
2)-------2-X--------4-X--------5-X--------5-------4-
3)-----2---X------5---X------6---X------6-------4--- 
4)---2-----X----6-----X----6-----X----6-------4-----
5)-0-------X----------X--4-------X--4-------2-------
6)---------X--4-------X----------X------------------
                       (Дважды)

A        G#        C#m    
Мама, я влюблена в мудака
B             A      G#      C#m        B  
Расскажи мне, почему от него жду звонка 


Куплет 1:
        A                    G# 
Себе скажу я снова — не верю ни слову
          C#m 
Но не пустить не хватит мне сил
B         A              G# 
И я пробиваю номер – его нет дома
        C#m  
Ну почему так хочется с ним? 

      B        A                  G# 
Много милых мужчин ищут сотни причин
     C#m  
Быть ближе (быть ближе)
           B          A             
Но если бы кто-нибудь знал
              G# 
Почему любовь зла 

Припев:
A        G#        C#m    
Мама, я влюблена в мудака
B             A      G#      C#m        B  
Расскажи мне, почему от него жду звонка 
A        G#        C#m    
Мама, я влюблена в мудака
B             A      G#      C#m        B  
Расскажи мне, почему от него жду звонка 

Куплет 2:
         A                G# 
Уходит и приходит, его глаза напротив
       C#m 
Мне обещают сотни проблем
B             A                    G# 
В который раз ему я верю, в пустую трачу время
        C#m 
Сама не понимаю зачем 

     B        A     
Оставляет мне шрам, мама
       G#               C#m   
Но его шарм – и я все прощаю
 C#m  
(Я все прощаю)
           B          A                   G#         
Но если б кто-нибудь знал, почему любовь зла 

Припев:
A        G#        C#m    
Мама, я влюблена в мудака
B             A      G#      C#m        B  
Расскажи мне, почему от него жду звонка 
A        G#        C#m    
Мама, я влюблена в мудака
B             A      G#      C#m        B  
Расскажи мне, почему от него жду звонка 

Куплет 3:
A                G# 
Я искала принца, да, я шла на принцип
C#m                      B 
Но не угадала (но не угадала)
A                 G# 
Поиграл и бросил, мама, еду в гости
C#m                B 
Ты предупреждала 

Припев:
A        G#        C#m    
Мама, я влюблена в мудака
B             A      G#      C#m        B  
Расскажи мне, почему от него жду звонка 
A        G#        C#m    
Мама, я влюблена в мудака
B             A      G#      C#m        B  
Расскажи мне, почему от него жду звонка 


   A          G#         C#m                 B      
1)---------X----------X----------X------------------
2)-------2-X--------4-X--------5-X--------5-------4-
3)-----2---X------5---X------6---X------6-------4--- 
4)---2-----X----6-----X----6-----X----6-------4-----
5)-0-------X----------X--4-------X--4-------2-------
6)---------X--4-------X----------X------------------

   A          G#         C#m                       
1)---------X----------X----------
2)-------2-X--------4-X--------5-
3)-----2---X------5---X------6---
4)---2-----X----6-----X----6-----
5)-0-------X----------X--4-------
6)---------X--4-------X----------

Куплеты можно играть перебором, как во вступлении, а можно боем, как в куплете. 

D-вниз U-Вверх X-щелчок с заглушкой в куплете / щелчок в переборе
                (A)    (G#)    (C#m) (B)
Бой в припеве: D-D-X--D-D-X--(Бой восьмеркой).
Наверх