Аккорды Klaxons - As Above So Below

Добавлено: @romashka
Дата добавления: 30 Апреля 2018г.
Рейтинг:
0.0
Просмотров: 71
Транспонировать - +
Tuning:Standard

In the record you can't hear much of a guitar because everything is made with 
synths but anyway if you want to play something...

Intro: Repeat 4 times 
e|--12--12-----12--12------14------------------------------------------------|
B|----------15---------15------12--15----------------------------------------|
G|---------------------------------------------------------------------------|
D|---------------------------------------------------------------------------|
A|---------------------------------------------------------------------------|
E|---------------------------------------------------------------------------|

Verse: Repeat 2 times (let ring every chord)
e|--3----2----0----2------3----2----0----3-----------------------------------|
B|--3----2----0----3------3----2----0----5-----------------------------------|
G|--4----3----0----4------4----3----0----5-----------------------------------|
D|--5----4----2----4------5----4----2----5-----------------------------------|
A|--5----4----2----2------5----4----2----3-----------------------------------|
E|--3----2----0-----------3----2----0----------------------------------------|

Pre Chorus
e|---------------------------------------------------------------------------|
B|---------------------------------------------------------------------------|
G|---------------------------------------------------------------------------|
D|---------------------------------------------------------------------------|
A|------1-----1-----1-----1-----1-----1-----1-----1--------------------------|
E|--2-2---2-2---2-2---2-2---2-2---2-2---2-2---2-2----------------------------|

Chorus: You can play the intro or verse parts whatever you want.
e|--3----2----0----2------3----2----0----3-----------------------------------|
B|--3----2----0----3------3----2----0----5-----------------------------------|
G|--4----3----0----4------4----3----0----5-----------------------------------|
D|--5----4----2----4------5----4----2----5-----------------------------------|
A|--5----4----2----2------5----4----2----3-----------------------------------|
E|--3----2----0-----------3----2----0----------------------------------------|

Pre Chorus

Verse: only once after bass part

Pre Chorus 

Chorus: Twice

Pre Chorus

Break (also let ring)
e|----------------0---------------------------0------------------------------|
B|----------------5---------------------------5------------------------------|
G|---------------------------------------------------------------------------|
D|---------------------------------------------------------------------------|
A|--7---------------------------7--------------------------------------------|
E|--0---------------------------0--------------------------------------------|

Intro part again till the end of the song 

           or 

Chorus: Twice and intro part


| /  slide up
| \  slide down
| h  hammer-on
| p  pull-off
| ~  vibrato
| +  harmonic
| x  Mute note
===============================================================================
comments powered by Disqus
Наверх