Аккорды Klaxons - As Above So Below

Добавлено: @romashka
Дата добавления: 30 Апреля 2018г.
Рейтинг:
0.0
Просмотров: 294
Транспонировать - +
Intro x2

G[------------------------------------]
D[-------------------22222222---------]
A[----------------------------33333333]
E[-33333333-22222222------------------]

Verse x4
G[------------------------]
D[---------------2~---2---]
A[-2-----0-----0--------3-]
E[---3~----2~-------------]

Pre-Chorus 
G[--------------------------------------------------]
D[--------------------------------------------------]
A[-----1-----1-----1-----1-----1-----1-----1-----1--]
E[--22----22----22----22----22----22----22----22----]

Chorus
G[----------------------------------------]
D[-55555555-44444444-22222222-------------]
A[----------------------------33333333----]
E[----------------------------------------]

Repreat Verse x2, Pre-Chorus 'nd Chorus x2
Наверх