Аккорды Klaxons - Golden Skans

Добавлено: @romashka
Дата добавления: 30 Апреля 2018г.
Рейтинг:
0.0
Просмотров: 22
Транспонировать - +
Tuning: Standard

e|--10--8---3--5-------------------------------------------------------------|
B|--10--8---3--5-------------------------------------------------------------|
G|--10--9---3--5-------------------------------------------------------------|
D|--12--10--5--7-------------------------------------------------------------|
A|--12--10--5--7-------------------------------------------------------------|
E|--10--8---3--5-------------------------------------------------------------|

e|---------------------------------------------------------------------------|
B|--10--11--8--13--10--------------------------------------------------------|
G|---------------------------------------------------------------------------|
D|---------------------------------------------------------------------------|
A|---------------------------------------------------------------------------|
E|---------------------------------------------------------------------------|

e|---------------------------------------------------------------------------|
B|---------------------------------------------------------------------------|
G|--7-----5-------7--------5-------------------------------------------------|
D|-----7-------------7-------------------------------------------------------|
A|-----------5----------0----------------------------------------------------|
E|---------------------------------------------------------------------------|

e|---------------------------------------------------------------------------|
B|---------------------------------------------------------------------------|
G|--2-2-2-2-5-5-5-5-2-2-2-2-5-5-0-2-2-2-2-5-5-5-5-2-2-2-2-5-5-0--------------|
D|---------------------------------------------------------------------------|
A|---------------------------------------------------------------------------|
E|---------------------------------------------------------------------------|

Then you just repeat these parts when necessary in the song!

| /  slide up
| \  slide down
| h  hammer-on
| p  pull-off
| ~  vibrato
| +  harmonic
| x  Mute note
===============================================================================
comments powered by Disqus
Наверх