Аккорды Klaxons - Magick

Добавлено: @romashka
Дата добавления: 30 Апреля 2018г.
Рейтинг:
0.0
Просмотров: 78
Транспонировать - +
Standard Tuning

G|---------------------------------|
D|---------------------------------|
A|-8-8-8-8-8-8-8-8-8-8-8-8-8-8-8-8-|
E|---------------------------------|x2

G|---------------------------------------------------------------------------------------------------------------------------------|
D|---------------------------------------------------------------------------------------------------------------------------------|
A|-8-8-8-8-8-8-8-8-8-8-8-8-8-8-8-8-11p10h11p10h11p10h11p10h11p10h11p10h11p10h11p10h11p10h11p10h11p10h11p10h11p10h11p10h11p10h11p10-|
E|---------------------------------------------------------------------------------------------------------------------------------|x2

G|---------------|
D|---------------|
A|-----8---------|
E|-8-8---8-9-6-9-|x4

G|---------------|
D|---------------|
A|-----7---------|
E|-8-8---8-9-6-9-|x4

G|---------------|
D|---------------|
A|-----8---------|
E|-8-8---8-9-6-9-|x4

G|---------------|
D|---------------|
A|-----7---------|
E|-8-8---8-9-6-9-|x4

G|-----------------------------|
D|-----------------------------|
A|-8~----8~----6-4~----6-3~----|
E|-----------------------------|x2


G|---------------|
D|---------------|
A|-----8---------|
E|-8-8---8-9-6-9-|x6

G|---------------|
D|---------------|
A|-----7---------|
E|-8-8---8-9-6-9-|x4

G|---------------------------------------------------------------------------------------------------------------------------------|
D|---------------------------------------------------------------------------------------------------------------------------------|
A|-8-8-8-8-8-8-8-8-8-8-8-8-8-8-8-8-11p10h11p10h11p10h11p10h11p10h11p10h11p10h11p10h11p10h11p10h11p10h11p10h11p10h11p10h11p10h11p10-|
E|---------------------------------------------------------------------------------------------------------------------------------|x2

G|-----------------------------|
D|-----------------------------|
A|-8~----8~----6-4~----6-3~----|
E|-----------------------------|x2

G|---------------------------------|
D|---------------------------------|
A|---------------------------------|
E|-9-9-9-9-9-9-9-9-8-8-8-8-8-8-8-8-|x4

G|---------------|
D|---------------|
A|-----8---------|
E|-8-8---8-9-6-9-|x4

G|---------------|
D|---------------|
A|-----7---------|
E|-8-8---8-9-6-9-|x4

G|---------------|
D|---------------|
A|-----8---------|
E|-8-8---8-9-6-9-|x4

G|---------------|
D|---------------|
A|-----7---------|
E|-8-8---8-9-6-9-|x3

G|---------------|
D|---------------|
A|-----7---------|
E|-8-8---8-9-----|
comments powered by Disqus
Наверх