Аккорды Klaxons - Totem on the Timeline

Добавлено: @romashka
Дата добавления: 30 Апреля 2018г.
Рейтинг:
0.0
Просмотров: 76
Транспонировать - +
Intro(Delay effects and whatnot)
e---------------------------------------|
b---------------------------------------|
g---------------------------------------|
d----------------88888------------------|
a-77777777-101010------666666666666-----|
E-----------------------------------3-2-|

there is a faint second part to the intro which sounds a little like this
g---------------------------------------|
d---------------------------------------|
a-7~-----------------76~----------------|
E-----------------------------------7---|


Verse
e---------------------------------------------|
b-----------------1111111111------------------|
g-99999999-121212------------888888888888-----|
d-----------------------------------------5-4-|
a---------------------------------------------|
E---------------------------------------------|

Chorus
e----------------------------------------------------------------|
b-1212121212121212-14-12-10-9--1212121212121212-1010101010101010-|
g-1212121212121212-14-12-10-9--1212121212121212-1111111111111111-|
d----------------------------------------------------------------|
a----------------------------------------------------------------|
E----------------------------------------------------------------|

e----------------------------------------------------------------|
b-8-8-888--77777777--8-8-888--77777777---------------------------|
g-9-9-999--88888888--9-9-999--88888888---------------------------|
d----------------------------------------------------------------|
a----------------------------------------------------------------|
E----------------------------------------------------------------|

From here the song repeats through verse to chorus a few more times then ends on a more 
verse.
comments powered by Disqus
Наверх