Аккорды Klaxons - Echoes

Добавлено: @romashka
Дата добавления: 26 Марта 2021г.
Рейтинг:
0.0
Просмотров: 144
Транспонировать - +
Вступление
A G#m C#m B
A G#m C#m C#m

A              G#m    
Send out a sound
           C#m
For the wood between the worlds
A           
Gently repeat
G#m         C#m
As the boundaries start to swirl
A              G#m
Keep to the call
        C#m
That is twice now liminal
A              G#m
It's not the same
         C#m
Where the trails lead to the outer regions

Припев

A                G#m
Echoes from the other world
       C#m           B
Turn horizons into endless ever present
A            G#m
Echoes many other worlds
       C#m             B
True horizon start to turn

Проигрыш 

e|---------------------------------------------------|
B|--9-7-7-7------------------------------------------|
G|----------9-9-9-8-8-8-6-6-------------8-8-8-8-8-8--|
D|--------------------------6-6-6-6-6-6--------------|
A|---------------------------------------------------|
E|---------------------------------------------------|
 
e|---------------------------------------------------|
B|--9-7-7-7------------------------------------------|
G|----------9-9-9-8-8-8-6-6--------------------------|
D|--------------------------6-6-6-6-6-6-6------------|
A|---------------------------------------------------|
E|---------------------------------------------------|


A            G#m
Numberless names
          C#m
With the force of the ninth wave
A            G#m
Keep to the call
         C#m
That's repeated in the outer regions

Припев

A                G#m
Echoes from the other world
       C#m           B
Turn horizons into endless ever present
A            G#m
Echoes many other worlds
       C#m             B
True horizon start to turn
A                 G#m           C#m     B
Echoes reflect and change their serenades
A                 G#m           C#m     B
Echoes reflect and change their serenades

Проигрыш
A G#m C#m B
A G#m C#m B

Припев
A                G#m
Echoes from the other world
       C#m           B
Turn horizons into endless ever present
A                G#m
Echoes from the other world
       C#m           B
Turn horizons into endless ever present
A                G#m
Echoes from the other world
       C#m           B
Turn horizons into endless ever present
A            G#m
Echoes many other worlds
       C#m             B
True horizon start to turn
A                 G#m           C#m     B
Echoes reflect and change their serenades
A                 G#m           C#m     B
Echoes reflect and change their serenades

Концовка

e|---------------------------------------------------|
B|--9-7-7-7------------------------------------------|
G|----------9-9-9-8-8-8-6-6-------------8-8-8-8-8-8--|
D|--------------------------6-6-6-6-6-6--------------|
A|---------------------------------------------------|
E|---------------------------------------------------|
                          Their serenades

                                       C#m
e|--------------------------------------4------------|
B|--9-7-7-7-----------------------------5------------|
G|----------9-9-9-8-8-8-6-6-------------6------------|
D|--------------------------6-6-6-6-6-6-6------------|
A|--------------------------------------4------------|
E|--------------------------------------4------------|
                             Serenades.
Наверх