Аккорды Kokia - My Life Is Going On

Добавлено: @romashka
Дата добавления: 20 Декабря 2020г.
Рейтинг:
0.0
Просмотров: 10
Транспонировать - +
[TAB intro e verse]
e|-----------|-----------|----------|-----------|
B|-3-------2-|---------0-|----------|-----------| *let notes ring on that string
G|-----------|-----------|----------|-----------|
D|--4-4-4----|--4-4-4----|--2-2-2---|--2-2-2----|
A|-2-2-2-2---|-0-0-0-0---|----------|-----------|
E|-----------|-----------|-4-4-4-4--|-3-3-3-3---|

 [TAB Chorus]
e|----0--0-|----3--3-|----2--2-|----0--0-||----3--3-|----0--0-|----2--2-|----0--0-|
B|--00-0--0|--00-0--0|--33-3--3|--00-0--0||--00-0--0|--00-0--0|--33-3--3|--00-0--0|
G|-1----1--|-0----0--|-4----4--|-1----1--||-0----0--|-1----1--|-4----4--|-1----1--|
D|2--------|0--------|4--------|2--------||0--------|2--------|4--------|2--------|
A|---------|---------|---------|---------||---------|---------|---------|---------|
E|---------|---------|---------|---------||---------|---------|---------|---------|

[Intro]
Bm   F#m/A   E/G#   Em/G

[Verse 1]
       Bm                    F#m/A
If I stay with you, if I'm choosing wrong
        E/G#                Em/G
I don't care at all
        Bm                    F#m/A
If I'm losing now, but I'm winning late
        E/G#                Em/G
That's all I want

Bm   F#m/A   E/G#   Em/G



[Verse 2]
        Bm                F#m/A
Now we need some space, 'cause I feel for you
        E/G#                Em/G
And I wanna change
        Bm            F#m/A
Growing up alone, it seems so short
        E/G#               Em/G
I can't explain

[Pre-Chorus]
Bm                       D                     G     Em  A
Whatever happens in the future, trust in destiny
Bm                         D                   G     Asus4
Don't try to make anything else even when you feel

[Chorus]
                E          G           Bm           E
I don't care at all               I am lost
                G          E           Bm           E
I don't care at all
G6                A6
Lost my time, my life is going on

Bm   F#m/A   E/G#   Em/G
Bm   F#m/A   E/G#   Em/G

[Verse 3]
       Bm                    F#m/A             E/G#      Em/G
I will be so strong, looking for a new version of myself
           Bm              F#m/A        E/G#             Em/G
Cause now all I want is to be a part of my new world

[Pre-Chorus]
Bm                       D                     G     Em  A
Whatever happens in the future, trust in destiny
Bm                         D                   G     A6
Don't try to make anything else even when you feel

[Chorus]
                E          G           Bm           E
I don't care at all                    I am lost
                G          E           Bm           E
I don't care at all
                G          E           Bm           E
Why not have it all                    I am lost
                G          E           Bm           E
I don't care at all
G6               Asus4          Bm
Lost my time, my life is going on
Наверх