Аккорды Коммунизм - Туман

Добавлено: @romashka
Дата добавления: 04 Ноября 2020г.
Рейтинг:
0.0
Просмотров: 33
Транспонировать - +
Вступление: D#m  G#  C#  F  D#m  F  A#m  F

 A#m   F   A#m   F#   G#   C# 
Туман туман седая пелена 
    D#m      G#      C#      F
Далеко далеко за туманами война

  D#m          G#          C#     F#
Идут бои без нас, но за нами нет вины
D#m             G#        C#  F
Мы к земле  прикованы туманом
   D#m        F     A#m F
Воздушные рабочие войны

  A#m    F   A#m  F#   G#    C#
Туман, туман о прошлом, о былом
D#m             G#        C#    F
Далеко, далеко за туманами наш дом
   D#m             G#     C#               F#
А в землянке фронтовой нам про детство снятся сны
   D#m        G#     C#    F
Видно все мы рано повзрослели
   D#m        F     A#m  G(III)
Воздушные рабочие войны

(Переход в тональность Cm)

   Cm G(III) Cm  G#  A#(VI)  D#
Туман туман окутал землю вновь
Fm        A#      D#    G(III)
Далеко далеко за туманами любовь

  Fm               A#          D#      G#
Долго нас невестам ждать с чужедальней стороны
       Fm     A#         D# G(III)
Мы не все вернемся из полета
    Fm      G(III)     Cm G#
Воздушные рабочие войны
    Fm      G(III)     Cm G#
Воздушные рабочие войны
    Fm      G(III)     Cm G#
Воздушные рабочие войны
    Fm      G(III)     Cm G#
Воздушные рабочие войны


Бас на тон ниже обычного строя
Бас:
Вступление:

F|--------------------3-3------------------------------------------------|
C|------------3-3-1-1------------------------------------5-5-------------|
G|---3-3-1-1------------------5-5------3-3-----2-2--3-3----------5-5-----|
D|-1----------------------3-3------1-1-----3-3---------------3-3---------|

Основная часть:
  x2
F|----------------------------------------------------3-3-----------------|
C|--------------5----------------8------------3-3-1-1---------------------|
G|-3-3-----3-3----3----------6-6--6---3-3-1-1-----------------5-5---------|
D|-----3-3----------4-4--6-6--------1---------------------3-3-------------|

F|-------------------3-3------------------------------3-3-----------------|
C|-----------3-3-1-1--------------------------3-3-1-1---------------------|
G|---3-3-1-1------------------6-6-----3-3-1-1------------------5-5--------|
D|-1----------------------4-4-----1-1----------------------3-3------------|

F|------------------------------------------------------------------------|
C|---------------------5-5------------------------------------------------|
G|-----3-3-----2-2-3-3---------2-2-3--------------------------------------|
D|-1-1-----3-3-------------3-3--------------------------------------------|

После перехода в другую тональность:

F|-----------------------------------------------------------------5-5--------|
C|-------------------------7----------------10-------------5-5-3-3------------|
G|-------------5-5-----5-5---5----------8-8----8---5-5-3-3-----------------7-7|
D|-5-5-5-5-5-5-----5-5---------6-6--8-8----------3---------------------5-5----|

F|-------------------5-5-----------------------------5-5------------------|
C|-----------5-5-3-3-------------------------5-5-3-3----------------------|
G|---5-5-3-3-----------------8-8-----5-5-3-3-----------------7-7----------|
D|-3---------------------6-6-----3-3---------------------5-5--------------|

F|------------------------------------------------------------------------|
C|---------------------7-7------------------------------------------------|
G|-----5-5-----4-4-5-5---------7-7----------------------------------------|
D|-3-3-----5-5-------------5-5--------------------------------------------|
Наверх