Аккорды Константин Ступин - Война

Добавлено: @romashka
Дата добавления: 03 Мая 2018г.
Рейтинг:
0.0
Просмотров: 147
Транспонировать - +
Вступление: x2
   E-------------------        ----------
   B-------------------        ----------
A5 G------------9-8-7--  G5 A5 ----------
   D-----------------8-        ----------
   A--6-5-3-2----------        --6-5-3-2-
   E-------------------        ----------

A5
На небе есть только небо,
A5
А на земле есть земля.
G5
Я встретил в тире арабов,
F5
По ходу - скоро война.

A5
Я в лес уйду к партизанам,
A5
Чтоб пить и песни орать.
G5
Чтоб злым и страшным с похмелья,
F5
С утра ходить воевать.

A5
Будем грабить обозы!
A5
Бомбить любой караван!
G5
Топить подлодки на море,
F5
Что создал гросс-адмирал

A5
А на железных дорогах,
A5
Устроим полный кикоз!
G5
Здесь не пройдут эшелоны,
F5
Составы все под откос.

G5
Кикоз!

Соло:
   E|-----------    -----------    -----------    -----------
   B|-----------    -----------    -----------    -----------
A5 G|----------- A5 ----------- A5 ----------- A5 -----------
   D|-----------    ---------5-    -----------    ---------5-
   A|-5-6-7-6---    -5-6-7-6---    -5-6-7-6---    -5-6-7-6---
   E|---------5-    -----------    ---------5-    -----------

          ----------8-          ------------    ---------5-
          -8-9-10-9---          -8-9-10-9---    -5-6-7-6---
          ------------          ----------8-    -----------
 C5(VIII) ------------ C5(VIII) ------------ A5 -----------
          ------------          ------------    -----------
          ------------          ------------    -----------

    -----------
    -----------
 A5 ----------- G5 F5 G5
    ---------5-
    -5-6-7-6---
    -----------

C5(VIII) A5 }x2

C5(VIII) G5
На небе есть только небо,
C5(VIII) G5
А на земле война!
C5(VIII) G5
Мы будем резать вражину,
F5
Стрелять и вешать врага.

C5(VIII) A5
Поставим всех на колени
C5(VIII) A5
Дадим под зад сапогом,
C5(VIII) G5
А если главный прикажет,
C5(VIII) F5
Назад Европу возьмём!

Вступление: x2
   E-------------------        ----------
   B-------------------        ----------
A5 G------------9-8-7--  G5 A5 ----------
   D-----------------8-        ----------
   A--6-5-3-2----------        --6-5-3-2-
   E-------------------        ----------

В соло бой такой же как в куплете.
comments powered by Disqus
Наверх