Аккорды Константин Ступин - Слон

Добавлено: @romashka
Дата добавления: 13 Июля 2018г.
Рейтинг:
0.0
Просмотров: 40
Транспонировать - +
Вступление: x4
  Em
1|----------------------------
2|---------0-----------1------
3|-------0---0-------0---0----
4|-----2-------2---2-------2--
5|---2-----------2------------
6|----------------------------
Всю песню зажат аккорд Em

Первая строка играется так:
  Em
1|----------------
2|----------0-----
3|--------0---0---
4|------2-------2-
5|----2-----------
6|----------------

В следующей строке вторая струна играется 
на первом ладу:
  Em
1|----------------
2|----------1-----
3|--------0---0---
4|------2-------2-
5|----2-----------
6|----------------

Эта пропорция сохраняется до конца песни.

Слова:
 У нас во дворе,
 Жил маленький слон,
 Всего три тонны,
 Весил он.
 
 Он сдох,
 А яму было лень копать,
 И мы оставили слона,
 Просто так лежать.
 
 А мухи любили,
 Слона живым,
 И кусали его,
 От зари до зари.
 
 А когда он сдох,
 Мухам стало веселей,
 И они поселили в него,
 Белых червей.
 
 А мы приносили,
 Червей в дома,
 И дома мамы говорили нам,
 Что это "Матата".
 
Вступление: 
  Em
1|----------------------------
2|---------0-----------1------
3|-------0---0-------0---0----
4|-----2-------2---2-------2--
5|---2-----------2------------
6|----------------------------

"Матата" (грустным голосом вытягивать 
          последнюю букву "А")

Вступление: x2
  Em
1|----------------------------
2|---------0-----------1------
3|-------0---0-------0---0----
4|-----2-------2---2-------2--
5|---2-----------2------------
6|----------------------------
comments powered by Disqus
Наверх