Аккорды Константин Ступин - Ганс

Добавлено: @romashka
Дата добавления: 24 Февраля 2019г.
Рейтинг:
0.0
Просмотров: 46
Транспонировать - +
Вступление:
G|-------2---------5-----------------------7-----|
D|-----2---2-----5---5---------5---------7---7---|
A|-0---------0-3-------3---3-5---5---5---------5-|
E|-----------------------3---------3-------------|x2

Проигрыш: A5... / D|-7-| A5

  A5             C5
Старый, дырявый череп,
    G5             D5
В ржавой немецкой каске,
    A5                 C5
Сказал, что он был солдатом,
    G5       D5
И звали его Гансом.

    A5                 C5
Он поил меня крепким шнапсом,
     G5               D5
И играл на губной гармошке,
  A5                  C5  
Штурмовых батальонов марши,
  G5                  D5
"Ганса Хорст Весселя помнишь?"

Проигрыш: A5... / D|-7-| A5

  A5            C5
А утром я вспомнил,
    G5                D5
Что вчера выпил море шнапса,
  A5                  C5
Пораскинул мозгами и понял:
    G5          D5
"Да, это была правда!"

  A5             C5
Это вернулась память,
    G5                 D5
Она стоит и ждёт возле дома,
  A5                 C5
Она подобна ангелу смерти,
    G5        D5
И теперь её слово.

  A5               C5
Она - правда, она блядь,
    G5                   D5
И если надо, она снова начнёт стрелять.
  A5               C5
Она - правда, она блядь,
    G5                    D5
И если надо, она снова начнёт стрелять.

Вступление:
G|-------2---------5-----------------------7-----|
D|-----2---2-----5---5---------5---------7---7---|
A|-0---------0-3-------3---3-5---5---5---------5-|
E|-----------------------3---------3-------------|x2

Проигрыш: A5... / D|-7-| A5 }x2

  A5             C5
Старый, дырявый череп,
    G5             D5
В ржавой немецкой каске,
  A5                  C5
Сказал, что он был солдатом,
    G5          D5
И звали его Гансом.
comments powered by Disqus
Наверх