Аккорды Константин Ступин - Корсары

Добавлено: @romashka
Дата добавления: 09 Апреля 2019г.
Рейтинг:
0.0
Просмотров: 20
Транспонировать - +
Вступление: A5 }x4

Куплет 1:
   A5           C             G             F5          
G|-----2----2-|-----0-----0-|-------------|-------------|
D|---2-----2--|---2-----2---|-----0-----0-|-----3-----3-|
A|-0-----0----|-3-----3-----|---2-----2---|---3-----3---|
E|------------|-------------|-3-----3-----|-1-----1-----|

     A5                C 
Спросил я у старых корсаров:
    G                  F5  
"Почём гарпуны на джейранов?"
      A5               C 
Мне главный с улыбкою жуткой,
     G                  F5  
Со шрамом, без левой ноги
    A5                 C 
Сказал, выпив рома из рога:
    G                     F5 
"Зачем тебе это сынок, зачем тебе это?"

Проигрыш: x4
   A5      C       G       F5          
G|-x-x-x-|-x-x-x-|-------|-------|
D|-2-3-2-|-2-3-2-|-x-x-x-|-3-3-2-|
A|-0-0-0-|-3-3-3-|-2-3-2-|-3-3-3-|
E|-------|-------|-3-3-3-|-1-1-1-|

Куплет 2:

A5 }x4

   A5           C             G             F5          
G|-----2----2-|-----0-----0-|-------------|-------------|
D|---2-----2--|---2-----2---|-----0-----0-|-----3-----3-|
A|-0-----0----|-3-----3-----|---2-----2---|---3-----3---|
E|------------|-------------|-3-----3-----|-1-----1-----|

      A5            C            G         F5
И сказал я тому корсару, что давно, ещё в детстве,
   A5            C         G            F5
Цыганка мне нагадала бороздить седой океан.
   A5              C         G                   F5
И выдал он мне трезубец из крепкой крупповской стали,
     A5                C      G              F5
В весёлых свастиках древко и руны Вотана на нём.

Проигрыш: x4
   A5      C       G       F5          
G|-x-x-x-|-x-x-x-|-------|-------|
D|-2-3-2-|-2-3-2-|-x-x-x-|-3-3-2-|
A|-0-0-0-|-3-3-3-|-2-3-2-|-3-3-3-|
E|-------|-------|-3-3-3-|-1-1-1-|

Куплет 3:

A5 }x4

   A5           C             G             F5          
G|-----2----2-|-----0-----0-|-------------|-------------|
D|---2-----2--|---2-----2---|-----0-----0-|-----3-----3-|
A|-0-----0----|-3-----3-----|---2-----2---|---3-----3---|
E|------------|-------------|-3-----3-----|-1-----1-----|

      A5                     C 
Не страшны нам не Бог и ни Дьявол,
      G              F5 
Мы седой бороздим океан,
       A5                  C 
Мы гроза всех морских караванов,
        G               F5 
С нами Дёниц гросс-адмирал.

Проигрыш: x8
   A5      C       G       F5          
G|-x-x-x-|-x-x-x-|-------|-------|
D|-2-3-2-|-2-3-2-|-x-x-x-|-3-3-2-|
A|-0-0-0-|-3-3-3-|-2-3-2-|-3-3-3-|
E|-------|-------|-3-3-3-|-1-1-1-|
comments powered by Disqus
Наверх