Аккорды Константин Ступин - Дождь

Добавлено: @romashka
Дата добавления: 29 Февраля 2020г.
Рейтинг:
0.0
Просмотров: 14
Транспонировать - +
Вступление 1:
1|---------------|---------------|---------------|--------------|
2|---------------|---------------|---------------|--------------|
3|---------------|---------------|---------------|--------------|
4|--2---3---2-3--|2-----3---2----|---------------|--------------|
5|0---0---0-----0|--0-0---0------|0-----2---3-2--|------3/5-3-2-|
6|---------------|---------------|--3-----3-----3|1---1---------|

1|---------------|---------------|---------------|--------------|
2|---------------|---------------|---------------|--------------|
3|---------------|---------------|---------------|--------------|
4|--2---3---2-3--|2-----2/5-3-2-0|---------------|--------------|
5|0---0---0-----0|--0-0----------|0-----2---3-2--|------2/5-3-2-|
6|---------------|---------------|--3-----3-----3|1---1---------|

Вступление 2 = Повтор Вступления 1, только используя palm mute.

Куплет 1:
A5                     C5          F5(VIII)
    Шёл дождь, пел ветер, горел камин, 
A5                    F5(VIII)     D5
    Еще одно столетье унесло как дым.
B5                      E5(VII)
    И я и ты уйдем за ним оставив только тени...

Проигрыш 1 = Вступление 2.

Куплет 2:
A5                     C5               F5(VIII)
    Я знаю всё растает, как папиросный дым
A5                      F5(VIII)       D5
    Мои следы своруют чтоб пройти по ним
B5                  E5(VII)
    И только тень моя напомнит обо мне...

Проигрыш 1.

Проигрыш2: E5(VII) D5 C5 C5 }x3 
           D5 B5 A5

Куплет 3:
A5                     C5         F5(VIII)
    Шёл дождь, пел ветер, горел камин,
A5                    F5(VIII)    D5
    Еще одно столетие унесло как дым.
B5                           E5(VII)
    Моя тень ворует чьи-то сны чужие грезы...
 
Концовка1 = Вступление1 +:
2|---------------|--------10-----|
3|------------9--|------9--------|
4|2-----7---7---7|----7----------|
5|0---0----------|---------------|

На записи гитара на пол тона ниже E.
comments powered by Disqus
Наверх