Аккорды Константин Ступин - Ночная трость

Добавлено: @romashka
Дата добавления: 17 Марта 2020г.
Рейтинг:
0.0
Просмотров: 37
Транспонировать - +
Вступление : 

1|-----------------------------
2|-----------------------------
3|-----------------------------
4|------9---------7--5--4------    Играется 3 раза 
5|---9-----9------7--5--4------
6|-7---------7----5--3--2------

Затем 

1|------------------------------------
2|------------------------------------
3|------------------------------------
4|------------------------------5--4--    Играется 2 раза
5|-----2---4--5--2--0--4-----5-----4--
6|-0----------------------3--------2--


  B5                A5 G5 F#5
Грязный весенний снег
 B5             A5 G5 F#5
Месиво под ногами
  B5               A5 G5 F#5
Звонкий девичий смех
        E5      G5 F#5
А утром ад ломает
  E5         G5 F#5
Многие испытают

Может быть это сон
Или уже повтор сна
Сухость во рту и боль
И кровь на моих руках

Но нет не любви кровь
И не печали нет
Я обагрил алтарь
грязных сумрачных лет

Эти годы они как бляди
хотят хохочут и просят
Темные ночи дарили им все
И я проклинаю теперь эти ночи
Я-аа.

Глупость все это и бред
Но разве словами можно
А знаешь Ночная трость
Это не так уж сложно

Я помню губами вино
Венами героин
Я разрешаю им всем
Грех ведь не истребим.

А мне бы с ведьмой на шабаше
Взлететь позабыв страх
И грязный весенний снег
И кровь на своих руках
Кровь на своих руках
Кровь...
comments powered by Disqus
Наверх