Аккорды Константин Ступин - Злые птицы

Добавлено: @romashka
Дата добавления: 28 Сентября 2020г.
Рейтинг:
0.0
Просмотров: 85
Транспонировать - +
Е:-12-
E5
G5 A5 A#5
E5
A#5 A5 G5
E5
E:-0-0-0-0-0-0-
A:-2-4-4-5-5-5-
D:-2-4-4-5-5-5-
E5
G5 A5 A#5
E:-0
A:-5
D:-5
E5
A#5 A5 G5
E5

E5
Когда случится выкидыш — не плачь
G5 A5 A#5
E5
Не надо ползать прямо на асфальте
G5 A5 A#5
A5 _______________________C5____B5
Не надо ползать, бога проклинать
B5
Не надо ползать растопырев пальцы

E:-7-5-3-0-------------0---0--0--0-0
A:-------2-7---------7-7---6--5--3-2
D:-------2--5-7-8-6-5---------------
E5


E5
Не надо даже дворника искать
G5 A5 A#5
E5
Сама хватай ведро и руковицы
G5 A5 A#5
A5_______________________ C5 __ B5
Всё это надо быстренько собрать
B5
Пока не налетели злые птицы

E:-7-5-3-0-------------0---0--0--0-0
A:-------2-7---------7-7---6--5--3-2
D:-------2--5-7-8-6-5---------------
E5
E:-3-5-6-7-0-3-5-6-7-0-3-5-6-7-8-7-6-5-0
E5

E5
Когда случится выкидыш — не плачь
G5 A5 A#5
E5
Не надо ползать прямо на асфальте
G5 A5 A#5
A5 _______________________ C5   B5
Не надо ползать, бога проклинать
B5
Не надо ползать растопырев пальцы
E:-7-5-3-0------------0-----
A:-------2-7----------7^~~~~
D:-------2--5-7-8^~-6-5-----
Наверх