Аккорды Константин Ступин - Ночью всякое бывает

Добавлено: @romashka
Дата добавления: 23 Апреля 2021г.
Рейтинг:
0.0
Просмотров: 102
Транспонировать - +
Intro
     A5     C5
1|--------------------------------------------------------
2|--------------------------------------------------------
3|-2-2-2-2--5--2-2-2-2--5--2-2-2-2--5--8-7-6--------------
4|-2-2-2-2--5--2-2-2-2--5--2-2-2-2--5--------8-7-6--------
5|-0-0-0-0--0--0-0-0-0--0--0-0-0-0--0--------------8-7-6-0
6|--------------------------------------------------------
     A5
1|-------------------------------------------------
2|-------------------------------------------------
3|-2-2-2-2----2-2-2-2-2-2--2-2-2-2----2-2-2-2-2-2--
4|-2-2-2-2----2-2-2-2-2-2--2-2-2-2----2-2-2-2-2-2--
5|-0-0-0-0----0-0-0-0-3-4--0-0-0-0----0-0-0-0-3-4--
6|-------------------------------------------------

A5
Ночь темна, ночью всякое бывает
C5   
По ночам кто-то в драке умирает 
G5
По ночам кто-то кайф на кухне варит 
     A5  C5  
Ночь темна 
E5             G5      A5    C5
Ночью всякое бывает, ночью темной 

Intro

A5
По ночам путают следы собакам 
C5
По ночам кто-то трахается раком 
G5
По ночам кто-то пьет мартини в баре 
     A5  C5  
Ночь темна 
E5             G5      A5    C5
А я играю в этом баре на гитаре 

Intro

A5
Ночь темна, ночью всякое бывает 
C5
По ночам и находят и теряют 
G5
Ночь она в игры разные играет 
     A5  C5  
Ночь темна 
E5             G5      A5    C5
Ночью всякое бывает, ночью темной 

Intro

A5    
По ночам кто-то мойкой вскроет вены в ванной 
C5
По ночам зашивают чьи-то раны 
G5
По ночам кто-то мчится в бой на танке 
     A5  C5  
Ночь темна 
E5                        G5      A5    C5
А кто-то сейф вскрывает в банке, ночью темной
Наверх