Аккорды Контора - Я иду к тебе домой

Добавлено: @romashka
Дата добавления: 24 Ноября 2019г.
Рейтинг:
0.0
Просмотров: 52
Транспонировать - +
Куплет:
       A6             C                                 D         
1)-------2----|-------0-------|----------3-----|--------2----|
2)-------2----|-------1-------|----------0-----|--------3----|
3)----2----2--|----0-----0----|-------0-----0--|-----2-----2-|
4)-2----------|---------------|----------------|--0----------|
5)------------|-3-------------|----3-----------|-------------|

A6 C D
На дворе зажглись ночные фонари.
A6 C D
В окнах затухал постепенно свет.
A6 C D
Я иду домой по пустынным улицам
A6 C D
Ветер дует мне в лицо и, я иду к тебе домой

Припев:
                                              x3 |                              
1)-------3-----------5------------7-----5----3---|-----3------------2---------0----------0--------0--------0---
2)-------0-----------0------------0-------0----0-|-----0------------3---------0----------0--------0--------0---
3)----0-----0-----0-----0------0-----0-----------|---0---0--------2---2-----0---0------0---0----0---0----0---0-
4)-----------------------------------------------|-------------0-----------------------------------------------
5)-3------------5-----------7--------------------|-3----------------------0----------0--------0--------0-------

  Я иду к тебе домой
  Я иду к тебе домой
  Я иду к тебе домой
  Вот и кончилась гулянка!

Бас:
4)---------5-2----------7-4---2-2-2-2--4-4-4-4--5-4-5-4-5-|
5)--3-2-3--------5-4-5------------------------------------|

Куплет:
       A6             C                                 D         
1)-------2----|-------0-------|----------3-----|--------2----|
2)-------2----|-------1-------|----------0-----|--------3----|
3)----2----2--|----0-----0----|-------0-----0--|-----2-----2-|
4)-2----------|---------------|----------------|--0----------|
5)------------|-3-------------|----3-----------|-------------|

A6 C D
Хоть голодный я как серый волк
A6 C D
С парою фингалов, с царапиной на лбу.
A6 C D
Я иду домой после этих драк
A6 C D
Руки мёрзнут на морозе, я иду к тебе домой

Припев: x2
                                              x3 |                              
1)-------3-----------5------------7-----5----3---|-----3------------2---------0----------0--------0--------0---
2)-------0-----------0------------0-------0----0-|-----0------------3---------0----------0--------0--------0---
3)----0-----0-----0-----0------0-----0-----------|---0---0--------2---2-----0---0------0---0----0---0----0---0-
4)-----------------------------------------------|-------------0-----------------------------------------------
5)-3------------5-----------7--------------------|-3----------------------0----------0--------0--------0-------

  Я иду к тебе домой
  Я иду к тебе домой
  Я иду к тебе домой
  Вот и кончилась гулянка!

Вся песня щипками.

Щепки:
1)--------х------|-------x-------|
2)--------х------|-------x-------|
3)-----х-----х---|----x-----x----|
4)---------------|---------------|
5)--х------------|--x------------|
comments powered by Disqus
Наверх