Аккорды Король и Шут - Театральный демон

Добавлено: @romashka
Дата добавления: 21 Апреля 2013г.
Рейтинг:
5.0
Просмотров: 604
Транспонировать - +
Вступление и куплет:

D:-------0-0----2-2- \
A:--0-2-------------- 4 раза
E:-----------0-2----- /

D:-------2-2------2-2----------0-0-------0-0---
A:------------------------------------------------
E:--0-3-------0-3----------0-3-------0-3-------

D:-------0-0------0-0----------2-2-------4-4---
A:------------------------------------------------
E:--0-2-------0-2----------0-2-------0-2-------


 Hm F#m7 Hm F#m7 Hm
В себе свято хранит
 F#m7 Hm  F#m7 Em
Театра стен гранит
 D  F#m7  Hm
Великих судеб
 Em/C#  F#
Единый путь.

И как ветра порыв,
Людских эмоций взрыв
Питает их - 
Детей моих.


Припев:
 G        A        Hm
Вся жизнь - словно миг,
 G  A  F#m
Ты многолик!
 C               Hm               A
Пока со мной ты здесь, пока ты рядом...
 G       A       Hm
Повелитель кукол жив,
 G   A  F#m
Корни пустив,
 C            Hm          F#
В магическом искусства алтаре,
 F# Em D F#m7 Hm F#m7
Рад всему вполне. 


Несете свой талант,
А я ваш  секундант:
Азартный бой - 
Дуэль с собой.

До капли выжму вас.
И даже в смертный час, 
Отринув боль - 
Примите роль! 


Припев:
Вся жизнь - словно миг,
Ты многолик!
Пока со мной ты здесь, пока ты рядом...
Повелитель кукол жив,
Корни пустив,
В магическом искусства алтаре,
Рад всему   вполне. 

Я управляю ритмами сердец!
Я управляю ритмами сердец!
Я управляю ритмами сердец!
Я управляю ритмами сердец!
comments powered by Disqus
Наверх