Аккорды Курара - Босоногий пёс

Добавлено: @romashka
Дата добавления: 23 Мая 2021г.
Рейтинг:
0.0
Просмотров: 273
Транспонировать - +
Интро:
 
e|-----8-----8-----8-| X6
B|-5-6---5-6---5-6---|
G|-------------------|
D|-------------------|
A|-------------------|
E|-------------------|

e|-----8-----8-----5-| X3
B|-5-6---5-6---5-6---|
G|-------------------|
D|-------------------|
A|-------------------|
E|-------------------|

Соло:

e|--8--8--8------8--8--8--5--5--5--7--7--7----| X2
B|----6--6--6--5--5--5------5--5--5--5--5--5--| 
G|--------------------------------------------|
D|--------------------------------------------|
A|--------------------------------------------|
E|--------------------------------------------|

Рифф из интро повторяется всю песню в одной из двух вариаций (с нотой Ля или До на первой струне).
Наверх