Аккорды Кузя - Здравствуй, универ

Добавлено: @romashka
Дата добавления: 11 Июня 2018г.
Рейтинг:
0.0
Просмотров: 22
Транспонировать - +
Вступление: 
 G  C  G  C 
E-----------------------|---------------------|
B------3-1--1--1--------|---------3--1--------|
G--0--------------------|------0--------------|
D-----------------------|----0----------------|
A-------------3--3------|---------------------|
E-----------------------|-3-------------------|

Куплет:
    G        C  
E------------------------|
B-------3---------1------|
G----0---------0---------| 
D------------------------|
A------------3-----------|
E--3---------------------|
  G        C  
Я хотел написать эту песню,
  G        C  
О друзьях и общаге,
  G        C  
Я хотел написать эту песню,
 
     B7             Em 
E-------------------------|
B----------0-----------0--|
G------2-----------0------|
D-------------------------|
A---2------------2--------|
E-------------------------|
Только все получались шняги

     C            B7          Em        C 
E------------------------|--------------0----|
B--------1-------------0-|---------0----1----|
G-----0-----------2------|-----0--------0----|
D------------------------|------------- 2----|
A--3----------2----------|--2-----------3----|
E------------------------|--------------0----|
И гитара с мечтой улетела, а еще прилетело мне в глаз...

 G                   C 
Я хотел написать эту песню
 G            C 
О друзьях и общаге,
 G                     C 
Я хотел написать эту песню
 B7                    Em 
Только все получались шняги.
 C                 B7 
И гитара с мечтой улетела,
 Em                    C 
А еще прилетело мне в глаз,
 G                       C 
Но друзья помогли мне в проблеме
  D 
И припев этот новый о нас.

 C                 B7               Em 
Беды растворятся, словно в кипятке лапша
    C           D                 G 
И я знаю точно, будем вместе мы всегда,
    B7           Em   C        D      G 
И в уютном блоке, так знакомо скрепит дверь
   B7           Em 
До свидания мама
           C  D  G 
Здравствуй Универ!

 C                B7 
К черту все запары
               Em 
До диплома далеко,
                 C 
Не пойдем на пары
      D           G 
Нам в общаге хорошо.
    B7          Em     C     D    G 
Все тебе по силам Ты в мечту свою поверь!
   B7           Em 
До свидания мама
           C  D  G 
Здравствуй Универ!

Далее играется перебором, как куплет:
     G        C  
E------------------------|
B-------3---------1------|
G----0---------0---------| 
D------------------------|
A------------3-----------|
E--3---------------------|

  G        C  
Я хотел написать эту песню
  G        C  
О друзьях и общаге,
  G        C  
Я хотел написать эту песню

    B7             Em 
E-------------------------|
B----------0-----------0--|
G------2-----------0------|
D-------------------------|
A---2------------2--------|
E-------------------------|
И я ее написал

Вся песня играется боем: / (P) /-/-/-/-/-/-/-/, 
где / - вниз, / - вверх, P - пауза. 
Меняется бой в начале, где поется 
"Но друзья помогли мне в проблеме", играется / (P) /-/-/. 
Где поется "Так знакомо скрипнет дверь" 
и "Ты в мечту свою поверь" играется всё время вниз.
Прослушав песню несколько раз, я думаю, 
вы услышите бой, который там отчетливо слышен.
comments powered by Disqus
Наверх