Аккорды «L'Arc~en~Ciel»

L'Arc~en~Ciel
L'Arc~en~Ciel (ラルク アン シエル), L'Arc или Laruku (ラルク?) — популярная японская рок-группа, сформированная в 1991 году. Группа продала более 13 миллионов копий альбомов, 16 миллионов копий синглов, а также миллионы других сборников, например с видеоклипами. «L'Arc-en-Ciel» в переводе с французского означает «радуга». Первоначально в составе группы были Hyde (вокал), Hiro (гитара), Tetsu (бас-гитара), и Pero (ударные). Начало их творческой карьеры вовсе не было безоблачным. Они записали пробную… Читать полностью... L'Arc~en~Ciel (ラルク アン シエル), L'Arc или Laruku (ラルク?) — популярная японская рок-группа, сформированная в 1991 году. Группа продала более 13 миллионов копий альбомов, 16 миллионов копий синглов, а также миллионы других сборников, например с видеоклипами. «L'Arc-en-Ciel» в переводе с французского означает «радуга». Первоначально в составе группы были Hyde (вокал), Hiro (гитара), Tetsu (бас-гитара), и Pero (ударные). Начало их творческой карьеры вовсе не было безоблачным. Они записали пробную кассету со своими песнями, давали небольшие концерты, приобретая своих фанатов, среди которых поначалу были практически одни девушки. В 1992 году Hiro решил покинуть группу, после чего Tetsu пригласил в группу Ken (друга детства Tetsu), который с радостью согласился стать частью L'Arc~en~Ciel. Ken пришлось бросить университет, где он учился на архитектора, и посвятить все свое время музыке. Именно этот факт вызвал трения между Ken и его родителями. Они до сих пор не общаются друг с другом. Именно с приходом Ken группа стала набирать свою популярность. Будучи профессиональным и очень талантливым, Ken вывел группу на новый уровень. В ноябре 1992 года они выпустили свой первый сингл «Flood of Tears». Количество копий ограничили до 1000 экземпляров. В декабре 1992 года группу покинул Pero. Тогда Tetsu уговорил Sakura, на тот момент проживающего в Токио, присоединиться к их группе. Так началось их путешествие к вершине славы. В апреле 1993 года вышел их первый альбом «Dune», с которым они отправились в гастрольное турне. Когда «Dune» поднялся на вершину хит-парада, у L'Arc~en~Ciel не было проблем с поиском звукозаписывающей компании, желающей подписать контракт с группой. В середине 1993 года они подписали контракт с компанией Ki/oon, принадлежащей Sony Records. Они выпустили видеоклип «nemuri ni yosete», затем новый альбом «Tierra» (июль 1994) и сингл «Blurry Eyes» (октябрь 1994). Новый имидж и звучание L'Arc~en~Ciel, ставшие более «попсовыми», сделали свое дело: дисков их третьего альбома «Heavenly» было продано в два раза больше, чем дисков предыдущего альбома. В 1996 году вышел еще один альбом под названием «True». Этот альбом принес группе большую популярность: было распродано свыше миллиона дисков, «True» продержался в чарте Oricon 100 недель! Позднее вышел сингл «The Fourth Avenue Café». В это же время ударник Sakura был задержан и арестован за употребление кокаина. По этой причине ему пришлось покинуть L'Arc~en~Ciel, что вызвало перерыв в работе группы в 1997 году. Через несколько месяцев группа вернулась к работе, но уже с новым барабанщиком Yukihiro, до этого игравшим в группе DIE IN CRIES. Являясь полной противоположностью Sakura, Yukihiro - довольно таки стеснительный человек. В музыке он отдает предпочтение техно, но несмотря на это, Yukihiro стал новым ударником L'Arc~en~Ciel. В 1998 году группа выпустила свой пятый альбом «HEART». В 1999 году были выпущены сразу два альбома — «Ray» и «Ark» — в один день. Оба альбома обрели огромную популярность, многие синглы с них стали хитами. Эти альбомы были близки по стилю раннему творчеству группы, и именно они сделали L'Arc~en~Ciel одной из самых популярных японских рок-групп. В 2000 году группа выпустила не только альбом с ремиксами, но и совершенно новый альбом «Real». В то же время принимались попытки выпустить диски группы в Америке, но все пошло не так, как планировалось. Альбом «Clicked Singles Best 13» так и не попал на прилавки американских магазинов. Однако сингл «Spirit dreams inside» был включен в саундтрек фильма «Final Fantasy: The Spirits Within». После выпуска сингла и сборника «The Best of L'Arc-en-Ciel» группа решила сделать перерыв для того, чтобы участники могли заняться своей сольной карьерой. В 2011 году группа возобновила концертную деятельность и отметила 20 летний юбилей. На 2012 год назначен мировой тур. Скрыть...
Популярные аккорды L'Arc~en~Ciel:
алфавиту | просмотрам | случайно
  • Intro
    
     Guitar 2
    e|--5--5--x-x-x-x--5--5--x-x-x-x--|--3--x-3-x-x-3--x-3-x-x-3--5--|-------|-------|-------|
    B|--6--6--x-x-x-x--5--5--x-x-x-x--|--3--x-3-x-x-3--x-3-x-x-3--5--|-------|-------|-------|
    G|--7--7--x-x-x-x--5--5--x-x-x-x--|--3--x-3-x-x-3--x-3-x-x-3--5--|--*//--|--*//--|--*//--|
    A|--7--7--x-x-x-x--6--6--x-x-x-x--|--5--x-5-x-x-5--x-5-x-x-5--7--|--//*--|--//*--|--//*--|
    D|--5--5--x-x-x-x--6--6--x-x-x-x--|--5--x-5-x-x-5--x-5-x-x-5--7--|-------|-------|-------|
    E|--x--x--x-x-x-x--5--5--x-x-x-x--|--3--x-3-x-x-3--x-3-x-x-3--5--|-------|-------|-------|…
  • Intro 1
    
     Guitarra 1
    e|-------------------------------------|----------------------------------------------------|
    B|-------------------------------------|----------------------------------------------------|
    G|-------------------------------------|----------------------------------------------------|
    D|-------------------------------------|----------------------------------------------------|
    A|-------------------------------------|----------------------------------------------------|
    E|-------------------------------------|----------------------------------------------------|…
  • Intro : F
    
    C           G       Am     F
    hoshi furu yoru kimi ni aitakute
    C         G        Am     F
    yoake o matazu machi o nukedashita
    Dm         G             F            C
    tsuki akari no shita no kimi...... ima…
  • TIMING: 4/4
    
    
    Intro:
    When the drums enter, then the bass enters with
    
    G-/9-9-797----------
    D----------9-7-9-7--
    A-------------------
    E-------------------
    
    G--------------------------------------------------------------------
    D-------------------2------5-4----------------------2---/12----------
    A-7-------------2-3---3--5-----5--7---------5-4-3-3---3-----12-------
    E---7-6-5-5-3-5---------------------7-6-5-5--------------------10----
    
    G--------------------------------------------------------------------
    D-------------------2-------------------------------2---/12----------
    A-7-------------2-3---3--5--------7---------5-4-3-3---3-----12-------
    E---7-6-5-5-3-5------------0-2-3----7-6-5-5--------------------10----
    
    G--------------------------------------------------------------------
    D-------------------2------5-4---------------------------------------
    A-7-------------2-3---3--5-----5--7---------5-4-3-3---3-5------------
    E---7-6-5-5-3-5---------------------7-6-5-5---------x-----0-2-3-0----
    
    G-------------------------------------4------------------------------
    D-------------------------5-4-------5--------------------------------
    A-7---------5-4-3-3---3-5------5--7-----7-5---5----------------------
    E---7-6-5-5---------x-----------------------7---5~-------------------
    
    G--------------------------------------------------------------------
    D--------------------------------------------------------------------
    A---2---3-3-3-3-3-3-3-3-3-3-3-3-5-5-7--------------------------------
    E-5-----------------------------------3-3-3-3-3-3-3-3----------------
    
    G--------------------------------------------------------------------
    D----------------------------------------------------------7---7-----
    A-------/5-5-5-----------------------------------------7-7---7-------
    E-3-3-3--------3-3-7-7-7-7-7-7-7-7-7-7-7-7-7-7-7-5-5-7---------------
    
    G--------------------------------------------------------------------
    D-7-5---5-7-5-7-5-7-5-x----------------------------------------------
    A-----7-----------------3-3-3-3-3-3-3-3-3-3-3-3-3-5-5-7--------------
    E--------------------------------------------------------------------
    
    G--------------------------------------------------------------------
    D--------------------------------------------------------------------
    A-----------------------/5-5-5---------------------------------------
    E-3-3-3-3-3-3-3-3-3-3-3--------3-7-7-7-7-7-7-7-7-7-7-7-7-7-7-7-7-----
    
    G--------------------------16---------------h-p------------h-p-------
    D--------------14----14-------14-14----14-121412----10-10-9109----12-
    A-3-3-3-x-/15-----15----15----------15-----------14------------10----
    E--------------------------------------------------------------------
    
    G-----------------------------h-p------------h-p----------12-11-11---
    D-12-10-9------------/14-14-121412----10-10-9109----12-12---------12-
    A---------12-10-9------------------14------------10------------------
    E-----------------10-------------------------------------------------
    
    G--------------------------------------------------------------------
    D-------------------2------5-4----------------------2---/12----------
    A-7-------------2-3---3--5-----5--7---------5-4-3-3---3-----12-------
    E---7-6-5-5-3-5---------------------7-6-5-5--------------------10----
    
    G--------------------------------------------------------------------
    D-------------------2-------------------------------2---/12----------
    A-7-------------2-3---3--5--------7---------5-4-3-3---3-----12-------
    E---7-6-5-5-3-5------------0-2-3----7-6-5-5--------------------10----
    
    G--------------------------------------------------------------------
    D-------------------2------5-4---------------------------------------
    A-7-------------2-3---3--5-----5--7---------5-4-3-3---3-5------------
    E---7-6-5-5-3-5---------------------7-6-5-5---------x-----0-2-3-0----
    
    G-------------------------------------4------------------------------
    D-------------------------5-4-------5--------------------------------
    A-7---------5-4-3-3---3-5------5--7-----7-5---5----------------------
    E---7-6-5-5---------x-----------------------7---5~-------------------
    
    G--------------------------------------------------------------------
    D--------------------------------------------------------------------
    A---2---3-3-3-3-3-3-3-3-3-3-3-3-5-5-7--------------------------------
    E-5-----------------------------------3-3-3-3-3-3-3-3----------------
    
    G--------------------------------------------------------------------
    D----------------------------------------------------------7---7-----
    A-------/5-5-5-----------------------------------------7-7---7-------
    E-3-3-3--------3-3-7-7-7-7-7-7-7-7-7-7-7-7-7-7-7-5-5-7---------------
    
    G--------------------------------------------------------------------
    D-7-5---5-7-5-7-5-7-5-x----------------------------------------------
    A-----7-----------------3-3-3-3-3-3-3-3-3-3-3-3-3-5-5-7--------------
    E--------------------------------------------------------------------
    
    G--------------------------------------------------------------------
    D--------------------------------------------------------------------
    A-----------------------/5-5-5---------------------------------------
    E-3-3-3-3-3-3-3-3-3-3-3--------3-7-7-7-7-7-7-7-7-7-7-7-7-7-7-7-7-----
    
    G--------------------------------------------------------------------
    D-------------14---------14-----15-----------------------------------
    A-------x-/15----15-15-15--15-15--15-15-7----------------------------
    E-8-8-8-----------------------------------7-6-5-5~---5---x-----------
    
    G--------------------------------------------------------------------
    D--------------------------------------------------------------------
    A-7---------------------------7--------------------------------------
    E---7-6-5-5-0-3-0-3-0-3-5-5-x---7-6-5-5-0-3-0-3-0-3-5-5-x------------
    
    G--------------------------------------------------------------------
    D--------------------------------------------------------------------
    A-7-------------------------1-1-1-1-1-1-1-1-1-1-1-1-3-3-3-5----------
    E---7-6-5-5-0-3-0-3-0-3-5-0------------------------------------------
    
    G--------------------------------------------------------------------
    D----------------------------------------------------7---7-7-5-------
    A-----------------------3-3-3-------------------/7-7---7-------8-7---
    E-1-1-1-1-1-1-1-1-1-1-1-------1-x-5-5-5-5-5-5-5--------------------3-
    
    G--------------------------------------------------------------------
    D--------------------------------------------------------------------
    A-----------10-10-8----8-10-8-10-8-10---1-1-1-1-1-1-1-1-1-1-1-1-3----
    E-3-3-3-/10---------10----------------x------------------------------
    
    G--------------------------------------------------------------------
    D--------------------------------------------------------------------
    A-3-3-5-----------------------3-3-3-----------------------/7-5-5-----
    E-------1-1-1-1-1-1-1-1-1-1-1-------1-x-5-5-5-5-5-5-5-5-5------------
    
    G--------------------------------------------------------------------
    D---------------------------9----------------------------------------
    A-8-7---------5-5---x-----7---7-9---3-3-3-3-3-3-3-3-3-5-5-5-5-5-2-3--
    E-----8-6-6-6-----6---x-0--------------------------------------------
    
    G------------------------------------------------
    D------------------------------------------------
    A-3-3-3-3-3-3-3-3-3-3-3-3-5-5-7------------------
    E--------------------------------3-3-3-3-3-3-3-3-
    G--------------------------------------------------------------------
    D----------------------------------------------------------7---7-----
    A-------/5-5-5-----------------------------------------7-7---7-------
    E-3-3-3--------3-3-7-7-7-7-7-7-7-7-7-7-7-7-7-7-7-5-5-7---------------
    
    G--------------------------------------------------------------------
    D-7-5---5-7-5-7-5-7-5-x----------------------------------------------
    A-----7-----------------3-3-3-3-3-3-3-3-3-3-3-3-3-5-5-7--------------
    E--------------------------------------------------------------------
    
    G--------------------------------------------------------------------
    D--------------------------------------------------------------------
    A-----------------------/5-5-5---------------------------------------
    E-3-3-3-3-3-3-3-3-3-3-3--------3-7-7-7-7-7-7-7-7-7-7-7-7-7-7-7-7-----
    
    G-------------------------------
    D-------------------------------
    A-3-3-3-3-3-3-3-3-5-5-5-5-5-2-3-
    E-------------------------------
    
    G------------------------------------------------
    D------------------------------------------------
    A-3-3-3-3-3-3-3-3-3-3-3-3-5-5-7------------------
    E--------------------------------3-3-3-3-3-3-3-3-
    
    G--------------------------------------------------------------------
    D----------------------------------------------------------7---7-----
    A-------/5-5-5-----------------------------------------7-7---7-------
    E-3-3-3--------3-3-7-7-7-7-7-7-7-7-7-7-7-7-7-7-7-5-5-7---------------
    
    G--------------------------------------------------------------------
    D-7-5---5-7-5-7-5-7-5-x----------------------------------------------
    A-----7-----------------3-3-3-3-3-3-3-3-3-3-3-3-3-5-5-7--------------
    E--------------------------------------------------------------------
    
    G--------------------------------------------------------------------
    D--------------------------------------------------------------------
    A-----------------------/5-5-5---------------------------------------
    E-3-3-3-3-3-3-3-3-3-3-3--------3-7-7-7-7-7-7-7-7-7-7-7-7-7-7-7-7-----
    
    G-----------/12-----h-p-----------------------------------------------
    D---------------10-9109-------------------------------2-------5-4-----
    A-3-3-3-3-3-------------10-10-10-x--7-------------2-3---3-5-5-----5---
    E-------------------------------------7-6-5-5-3-5---------------------
    
    G---------------------------------------------------------------------
    D-------------------2---5-4-------------------------------5-4---------
    A-7---------5-4-3-3---3-----5-x-7-------------2-3-------5-----5-------
    E---7-6-5-5-----------------------7-6-5-5-3-5-----0-2-3---------------
    
    G--------------------------------------------------------------------
    D----------------------4----5----7-------------------2-----5-4-------
    A-7---------5-4-3-3-/5---/7---/9---7-------------2-3---3-5-----5-----
    E---7-6-5-5--------------------------7-6-5-5-3-5---------------------
    
    G--------------------------------------------------------------------
    D-------------------2------5-4---------------------------------------
    A-7---------5-4-3-3---3--5-----5-7-------------2-3~--3-5-------------
    E---7-6-5-5------------------------7-6-5-5-3-5-----------5-----------
    
    G--------------------------------------------------------------------
    D--------------------------------------------------------------------
    A-7-7-7--------------------------------------------------------------
    E---------x-7-5--5~----5~-----5~----1/-------------------------------…
  • GUITAR TAB
    
    
      GUITARA 1
    
     /---Play4x---
    e|-------------|-------------------------------12h---p10p9p7----------------------------------G
    B|--p12p10h14--|--p10h12-p9h10h9-p7-p5-7--/12--12-------------p9--h12p10h7--p10p9h7-p10p9-----U
    G|-------------|------------------------------------------------------------------------------I
    D|-------------|------------------------------------------------------------------------------T
    A|-------------|------------------------------------------------------------------------------A
    E|-------------|------------------------------------------------------------------------------R
    
    e|------------------------------------p15p15p15--p14p14p14--------------h19--p14p14p14--------G
    B|-----------------13----13----15~15~-p15p15p15--p14p14p14----p17p17p17------p14p14p14--------U
    G|--9-9~~--/14--14----14----14-----------------------------14--------------------------p14h13-I
    D|--------------------------------------------------------------------------------------------T
    A|--------------------------------------------------------------------------------------------A
    E|--------------------------------------------------------------------------------------------R
    
    e|------------h19-----h17-----h16-p14--h12p14p14h12h13h14--/16-16~----------------------------G
    B|--p17p17p17-----p17-----p17--------------------------------------p12p14h14h12--------p12h14-U
    G|------------------------------------------------------------------------------p14p12--------I
    D|--------------------------------------------------------------------------------------------T
    A|--------------------------------------------------------------------------------------------A
    E|--------------------------------------------------------------------------------------------R
    
    e|----------ph16~~~~~~~-----------------------------------------------------------------------G
    B|--p12p12------------------------------------------------------------------------------------U
    G|--------------------------------------------------------------------------------------------I
    D|--------------------------------------------------------------------------------------------T
    A|--------------------------------------------------------------------------------------------A
    E|--------------------------------------------------------------------------------------------R…
  • E||----------------------|--------------------|------------------------|
    B||--17------------13/---|--17----------------|--15------17------18----|
    G||----------------------|--------------------|------------------------|
    D||----------------------|--------------------|------------------------|
    A||----------------------|--------------------|------------------------|
    E||----------------------|--------------------|------------------------|…
  • Intro:(A-B-G#m-C#m-A-B-E)2x
    
          E                      A
    atsukunatta gin no metarikku ha-to 
    
            C#m      B  A     B
    doukasen ni hi o tsukete ageru 
    
            E                    A
    fushigi na hodo hai na kibun sa…
  • Chords:
    
    FM7
    
      1
      1
      2
      2
      3
      1
     
      C         G         Bb              Am7 A7
    [ hana ga saiteiru yo iro toridori no hana ga ]
    
    F              G        Dm7        G7
    yume miru nara douzo ki ga tooku…
  • Chords (capo 1st):
    	[A]    x02220	[As2]  x02200	[B]    x24442	[Bs4]  x24452
    	[C#]   x46664	[C#m]  x46654	[E]    022100	[F#m]  244222
    	[G#]   466544	[G#m]  466444
    
    
    Verse:
    
         |As2    |As2    |E    |E
       Zutto...…
  • E||------------------|--5--------4--------5-----|-----4--------5--------4--|
    B||------------------|-----5--5-----5--5-----5--|--5-----5--5-----5--5-----|
    G||------------------|--------------------------|--------------------------|
    D||------------------|--------------------------|--------------------------|
    A||------------------|--------------------------|--------------------------|
    E||------------------|--------------------------|--------------------------|
    
    --------5--------5--------|--12--12--12--12--12--10--10--9---|
    --5--5-----5--5-----5--5--|--10--10--10--10--10--10--10--10--|
    --------------------------|--11--11--11--11--11--11--11------|
    --------------------------|------------------------------12--|
    --------------------------|----------------------------------|
    --------------------------|----------------------------------|
    
    ----------9----------10----------|--7--------9--------7-----|
    --10---------10--10------10--10--|-----9--9-----9--9-----9--|
    ------11-------------------------|--------------------------|
    ---------------------------------|--------------------------|
    ---------------------------------|--------------------------|
    ---------------------------------|--------------------------|
    
    -----------------------------|--------------------------------|
    --10-----10--------10--------|--10--10--10--10--10--10--9--9--|
    ------9------9--9------9--9--|------9---9---9---9---9---9--9--|
    -----------------------------|------9---9---9---9---9---9--9--|
    -----------------------------|------7---7-------7---7------7--|
    -----------------------------|--------------------------------|
    
    ----------------------------|---------------------------|
    --10--------9--------10-----|--9--------10--------9-----|
    ------9--9-----9--9------9--|-----9--9------9--9-----9--|
    ----------------------------|---------------------------|
    ----------------------------|---------------------------|
    ----------------------------|---------------------------|
    
    ---------------------------|----------10----9---10----10--|
    --------10--------9--------|--10------10----10--------10--|
    --9--9------9--9-----9--9--|------11--11----11--------11--|
    ---------------------------|------------------------------|
    ---------------------------|------------------------------|
    ---------------------------|------------------------------|
    
    ----------9----------10----------|---------9--------7--5--4--|
    --10-----------------------------|--9------------------7--5--|
    --11--11-----11--11------11--11--|--11--9-----9--9-----------|
    ---------------------------------|---------------------------|
    ---------------------------------|---------------------------|
    ---------------------------------|---------------------------|
    
    --5-----5--------4--------|--12--12--12--12--12--10--0-----|
    -----5-----5--5-----5--5--|--10--10--10--10--10--10--14----|
    --------------------------|--------------------------14----|
    --------------------------|--12--12--12--12--12--12--18----|
    --------------------------|--------------------------------|
    --------------------------|--------------------------------|
    
    ------0-----0------------|------------------|----------------5--|
    --------------10---------|------------------|-------------------|
    -------------------------|------------------|-------------------|
    -------------------------|------------------|-------------------|
    ---------12--------------|------------------|-------------------|
    -------------------------|------------------|-------------------|
    
    ---------12--10-----0----|-------------------|----------2--7----1--|
    -------------------------|-------------------|----------2-------2--|
    ---------11--11--------9-|-------------------|----------2--6----6--|
    ---------10--10----------|-------------------|-------------7-------|
    --------------------12---|-------------------|---------------------|
    -------------------------|-------------------|---------------------|
    
    ------------------|----------4--4----5--|-------5--------5----4--|
    ------------------|----------5--5----5--|----5--5--5--5--5----5--|
    ------------------|----------4--4----6--|-------6--------6----4--|
    ------------------|---------------------|------------------------|
    ------------------|---------------------|------------------------|
    ------------------|---------------------|------------------------|
    
    -------5--------4-----5--|-------2--0--4--2--0--12--|
    ----5--5--5--5--5--5-----|----5--2--------1-----10--|
    -------4--------4-----6--|-------5--------1-----11--|
    ----------------------7--|----------------------12--|
    -------------------------|--------------------------|
    -------------------------|--------------------------|
    
    ----10--------9---10--------|----------------------------------|
    ----10--10----10--14--------|----------------------------------|
    ----11--11----11--14----14--|--------14------13--14--------14--|
    ----12--12----12--16----14--|----14--14--14---------14-14--14--|
    ------------------17----12--|--------12----------12--------14--|
    ----------------------------|----------------------------------|
    
    --------------------------------|-------------------------------|
    --------------------------------|--------------------10-----10--|
    --------14------13--14------14--|--------14------13--11--9------|
    ----14--14--14------14--14--16--|----14--16--14------11---------|
    --------14----------14------16--|--------16---------------------|
    --------------------------------|-------------------------------|
    
    -------12--12--12--10--9---10--|----------------------------|
    ----7--10--10--10--10--10--10--|--------9---------9---------|
    -------11--11--11--11--11--11--|--------9---------9-----9---|
    -------12--12--12--12--12--12--|--------11--------11----11--|
    -------------------------------|----------------------------|
    -------------------------------|--9--9------9--9------------|
    
    ------------------------------|-------------------------|
    --9---------------------------|--------7--------7-------|
    --9-----11--11----11--11--11--|--------7--------7-------|
    --11----12--12----12--12--12--|--------7--------7-------|
    --11----12--12----12--12--12--|-------------------------|
    --------10--10----10--10--10--|--7--7-----7--7-------7--|
    
    ------------------------|--------0--------0--------|---------------------------|
    --7----7--7----7--7--7--|--------2--------2--------|---------------------3--3--|
    --7----7--7----7--7--7--|--------1--------1--------|-------2--2------2---2--2--|
    --7----7--7----7--7--7--|--------------------------|--0-------7------3---7--2--|
    --5----5--5----5-----5--|--4--4-----4--4-----4--4--|----------12-----7---------|
    ------------------9-----|--------------------------|-----------------10--------|
    
    -------------------------|----------0----------0--|----0--5--0--0--5--0-----|
    --------0--------0-------|---------------3--2--2--|----2--5--2--2--5--2---0-|
    --------7--------7-------|-----2----2----2--2--2--|----2--6--2--2--6--2---0-|
    --------7--------7-------|--7--0----0----0--0-----|-------7--------7--------|
    --2--2-----------7-------|--5---------------------|-----------------------2-|
    --------8--7--7-------7--|------------------------|-------------------------|
    
    -------------------------|-----------------------4--|----0--0----4--4--4--4--|
    ----0--0-----0--0--0-----|--------------3-----3-----|----5--0----5--5--5--5--|
    ----0--4-----0--5--4--6--|---6--6-6-----1--6--6--0--|------------6--6--6--6--|
    ----------------------4--|---4--4-------4--4-----6--|-------6----6--6--6--6--|
    ----2--------2--------7--|---7-------------7--4-----|----6-------------------|
    -------3--------7--3-----|-----------------------7--|----7--7----------------|
    
    --10---5--5--9--5--5--10------|---9---------10----------9------|
    --------------------------10--|-----10--10------10--10-----10--|
    ------------------------------|--------------------------------|
    ------------------------------|--------------------------------|
    ------------------------------|--------------------------------|
    ------------------------------|--------------------------------|
    
    --10----------9----------10-----|--12----12--12--12--12------0---|
    ------10--10-----10--10-----10--|--12----12--12--12--12--12------|
    --------------------------------|--13----13--13--13--13--13------|
    --------------------------------|--14----14--14--14--14--14--11--|
    --------------------------------|------------------------14--12--|
    --------------------------------|--------------------------------|
    
    ----0---0---0---0---0---0------|----0--0----0--0--0--2--|
    --------10----------10-------0-|----0--0----0--0--0--2--|
    -----------------------------0-|------------------------|
    ----11--11--11--11--11--11-----|----2--2----2--2--2--4--|
    ----12--12--12--12--12--12-----|------------------------|
    -----------------------------7-|------------------------|
    
    ----2--2----2--2--2--4--|----0--0----4--4--4--4--|
    ----2--2----2--2--2-----|----5--0----5--5--5--5--|
    ---------------------0--|------------6--6--6--6--|
    ----4--4----4--4--4--6--|-------6----6--6--6--6--|
    ------------------------|----6-------------------|
    ---------------------7--|----7--7----------------|
    
    --10---5--5--9--5--5--10------|---9---------10----------9------|
    --------------------------10--|-----10--10------10--10-----10--|
    ------------------------------|--------------------------------|
    ------------------------------|--------------------------------|
    ------------------------------|--------------------------------|
    ------------------------------|--------------------------------|
    
    --10----------9----------10-----|--12----12--12--12--12--0-----|
    ------10--10-----10--10-----10--|--12----12--12--12--12--15----|
    --------------------------------|--13----13--13--13--13--16----|
    --------------------------------|--14----14--14--14--14--18----|
    --------------------------------|------------------------------|
    --------------------------------|------------------------------|
    
    ----------------------------------|----------------------------------|
    ----------------------------------|----------------------------------|
    --14----------13----------14------|--13----------14----------13------|
    ------14--14------14--14------14--|------14--14------14--14------14--|
    ----------------------------------|----------------------------------|
    ----------------------------------|----------------------------------|
    
    ----------------------------------|----------10----9---10----10--|
    ----------------------------------|----------10----10--------10--|
    ----------14----------13----------|--14--11--11----11--------11--|
    --14--14------14--14------14--14--|------------------------------|
    ----------------------------------|------------------------------|
    ----------------------------------|------------------------------|
    
    ----------9----------10----------|---------9--------7--5--4--|
    --10-----------------------------|--9------------------7--5--|
    --11--11-----11--11------11--11--|--11--9-----9--9-----------|
    ---------------------------------|---------------------------|
    ---------------------------------|---------------------------|
    ---------------------------------|---------------------------|
    
    --5-----5--------4--------|----5----5--5--5--5----|---------------------|
    -----5-----5--5-----5--5--|-----------------------|----------0----------|
    --------------------------|----7----7--7--7--7----|----------6----------|
    --------------------------|----7----7--7--7--7----|--------7-10---------|
    --------------------------|----5----5--5--5--5----|---------------------|
    --------------------------|-----------------------|---------------------|
    
    ------------------|------------------|-------------1---0-1--|------------------|
    ------------------|------------------|----------0--3-----0--|------------------|
    ------------------|------------------|----------3--------1--|------------------|
    ------------------|------------------|----------5--------2--|------------------|
    ------------------|------------------|----------5--0--------|------------------|
    ------------------|------------------|----------------------|------------------|
    
    ------------7--------|------------------|----------4--4----5--|
    -----------------6---|------------------|----------5--5----5--|
    ------------6----6---|------------------|----------4--4----6--|
    ------------7----11--|------------------|---------------------|
    ---------------------|------------------|---------------------|
    ---------------------|------------------|---------------------|
    
    -------5--------4--5--4--|-------5--------4-----5--|----5--5-----4--2--0--12--|
    ----5--5--5--5--5--5--5--|----5--5--5--5--5--5--7--|----7--7--5-----1-----10--|
    -------6--------6--6--4--|-------4--------4-----6--|----6--6--------1-----11--|
    -------------------------|-------------------------|----------------------12--|
    -------------------------|-------------------------|--------------------------|
    -------------------------|-------------------------|--------------------------|
    
    ----10--------9---10--------|----------------------------------|
    ----10--10----10--14--------|----------------------------------|
    ----11--11----11--14----14--|--------14------13--14--------14--|
    ----12--12----12--16----14--|----14--14--14---------14-14--14--|
    ------------------17----12--|--------12----------12--------14--|
    ----------------------------|----------------------------------|
    
    --------------------------------|-------------------------------|
    --------------------------------|--------------------10-----10--|
    --------14------13--14------14--|--------14------13--11--9------|
    ----14--14--14------14--14--16--|----14--16--14------11---------|
    --------14----------14------16--|--------16---------------------|
    --------------------------------|-------------------------------|
    
    -------12--12--12--12--10--10--|----------------------------|
    ----7--10--10--10--10--10--10--|--------9---------9---------|
    -------11--11--11--11--11--11--|--------9---------9-----9---|
    -------12--12--12--12--12--12--|--------11--------11----11--|
    -------------------------------|----------------------------|
    -------------------------------|--9--9------9--9------------|
    
    ------------------------------|-------------------------|
    --9---------------------------|--------7--------7-------|
    --9-----11--11----11--11--11--|--------7--------7-------|
    --11----12--12----12--12--12--|--------7--------7-------|
    --11----12--12----12--12--12--|-------------------------|
    --------10--10----10--10--10--|--7--7-----7--7-------7--|
    
    ------------------------|--------0--------0--------|---------------------------|
    --7----7--7----7--7--7--|--------2--------2--------|---------------------3--3--|
    --7----7--7----7--7--7--|--------1--------1--------|-------2--2------2---2--2--|
    --7----7--7----7--7--7--|--------------------------|--0-------7------3---7--2--|
    --5----5--5----5-----5--|--4--4-----4--4-----4--4--|----------12-----7---------|
    ------------------9-----|--------------------------|-----------------10--------|
    
    -------------------------|----------0----------0--|----0--5--0--0--5--0--0--|
    --------0--------0-------|---------------3--2--2--|----2--5--2--2--5--2--0--|
    --------7--------7-------|-----2----2----2--2--2--|----2--6--2--2--6--2-----|
    --------7--------7-------|--7--0----0----0--0-----|-------7--------7-----2--|
    --2--2-----------7-------|--5---------------------|-------------------------|
    --------8--7--7-------7--|------------------------|-------------------------|
    
    ----0--0----0--0--0--2--|----2--12--12--12--12--12------|
    ----0--0----0--0--0--2--|----2--10--10--10--10--10--9---|
    ------------------------|-------11--11--11--11--11--9---|
    ----2--2----2--2--2--4--|----4--11--11--11--11--11--11--|
    ------------------------|---------------------------11--|
    ------------------------|-------------------------------|
    
    ------------------------------|--10-----------9----------10------|
    ----9---9-----9---9---9---9---|-------10--10-----10--10------10--|
    ----9---9-----9---9---9---9---|----------------------------------|
    ----11--11----11--11--11--11--|----------------------------------|
    ----11--11----11--11--11--11--|----------------------------------|
    ------------------------------|----------------------------------|
    
    ---9---------10----------9------|--10----------9----------10-----|
    -----10--10------10--10-----10--|------10--10-----10--10-----10--|
    --------------------------------|--------------------------------|
    --------------------------------|--------------------------------|
    --------------------------------|--------------------------------|
    --------------------------------|--------------------------------|
    
    --12----12--12--12--12------12--|----12--12--12--12--12--12--0---|
    --12----12--12--12--12--12------|--------10----------10------0---|
    --13----13--13--13--13--13--9---|----9---9---9---9---9---9-------|
    --14----14--14--14--14--14--11--|----11--11--11--11--11--11------|
    ------------------------14--12--|----12--12--12--12--12--12------|
    --------------------------------|----------------------------12--|
    
    ----0--0----0--0--0--2--|----2--2----2--2--2--4--|----4--4----4--4--4--4--|
    ----0--0----0--0--0--2--|----2--2----2--2--2-----|----5--5----5--5--5--5--|
    ------------------------|---------------------0--|----6--6----6--6--6--6--|
    -------2----2--2--2--4--|----4--4----4--4--4--6--|----6--6----6--6--6--6--|
    ----7-------------------|------------------------|------------------------|
    ------------------------|---------------------7--|------------------------|
    
    --10---5--5--9--5--5--10------|---9---------10----------9------|
    --------------------------10--|-----10--10------10--10-----10--|
    ------------------------------|--------------------------------|
    ------------------------------|--------------------------------|
    ------------------------------|--------------------------------|
    ------------------------------|--------------------------------|
    
    --10----------9----------10------|-----------------------------|
    ------10--10-----10--10------10--|--9---10----12----10--9--0---|
    ---------------------------------|--9---9-----9-----9---9--5---|
    ---------------------------------|--9---9-----9-----9---9------|
    ---------------------------------|--11--11----11----11--11-----|
    ---------------------------------|-------------------------7---|
    
    --------------------------|--------------------------|
    --------------------------|--------------------------|
    --------------------------|--3--3--3--3--3--3--3--3--|
    --6--6--6--6--6--6--6--6--|--3--3--3--3--3--3--3--3--|
    --6--6--6--6--6--6--6--6--|--1--1--1--1--1--1--1--1--|
    --4--4--4--4--4--4--4--4--|--------------------------|
    
    --------------------------|--------------------------|
    --1--1--1--1--1--1--1--1--|--1--1--1--1--1--1--1--1--|
    --0--0--0--0--0--0--0--0--|--0--0--0--0--0--0--0--0--|
    --------------------------|--------------------------|
    --3--3--3--3--3--3--3--3--|--3--3--3--3--3--3--3--3--|
    --------------------------|--------------------------|
    
    --------------------------|--------------------------|
    --------------------------|--------------------------|
    --1--1--1--1--1--1--1--1--|--3--3--3--3--3--3--3--3--|
    --1--1--1--1--1--1--1--1--|--3--3--3--3--3--3--3--3--|
    --------------------------|--1--1--1--1--1--1--1--1--|
    --4--4--4--4--4--4--4--4--|--------------------------|
    
    --------------------------|-----------------------11--11-|
    --1--1--1--1--1--1--1--1--|--1--1--1--1--1--1--1---------|
    --0--0--0--0--0--0--0--0--|--0--0-----0--0--0--0---------|
    --------------------------|------------------------------|
    --3--3--3--3--3--3--3--3--|--3--3--3--3--3--3--3---------|
    --------------------------|------------------------------|
    
    ---11---------------------------------|---------------------|
    ----------13-11-13----11--------------|---------------------|
    -------12----------------12-10-8----8-|---10----------------|
    ---------------------------------10---|---------------------|
    --------------------------------------|---------------------|
    --------------------------------------|---------------------|
    
    ------------------------------|-----5-----5--6---5---6--|--6-----------6-----6-|
    ------------6--4--4--6-----6--|-----6-----6--8---6---8--|--8-------------8---8-|
    ------10-8--3--0--------0-----|--5----------------------|----------------------|
    --10-----------6--------5-----|-------------------------|----------------------|
    ------------1-----------9-----|-------------------------|----------------------|
    ------------6--6--------------|-------------------------|----------------------|
    
    ---6----6----6----6-6-3--3-6--3-|--6----5---------------------|
    -----8----8-----8---------------|---------7-6-4-1----4-----4--|
    -------------7------------------|---------------3-------------|
    --------------------------------|-----------------------------|
    --------------------------------|-----------------------------|
    --------------------------------|-----------------------------|
    
    -----------------1---------|----4----------------------7-|
    ----4-3--1--3------4-1--4--|--4---6---4--6-----7-----7---|
    --5---5--3--5----2------0--|------10--8--10----11--------|
    ---------------------------|-----------------------------|
    ---------------------------|-----------------------------|
    ---------------------------|-----------------------------|
    
    --6---0---3-1-5---1-3----0--|---3-5-1-3---5----3-5----5--|
    ------6-4-------1--------6--|-----------4----4--------6--|
    --7-------------3-----------|---3---------5------5-------|
    ----------------------------|----------------------------|
    ----------------------------|----------------------------|
    ----------------------------|----------------------------|
    
    --5--3----5----3---3-5-8-----8-|---11---8---11----8----11--|
    --6--4--6----4-------7---------|---------------------------|
    -------------------------------|---------------------------|
    -------------------------------|---------------------------|
    -------------------------------|---------------------------|
    -------------------------------|---------------------------|
    
    --8----11---8---11---8---11--|--13----------------|
    -----------------------------|--------------------|
    -----------------------------|--------------------|
    -----------------------------|--------------------|
    -----------------------------|--------------------|
    -----------------------------|--------------------|
    
    --------------12-10----0-------|--5--0--0--4--0--0--5--0--|
    --------------------10----0----|--------------------------|
    -----------------12------------|--------------------------|
    -----------------12-12---------|--------------------------|
    --------------------11-12-7-8--|--------------------------|
    -----------------------11-6----|--------------------------|
    
    --0--4--0--0--5--0--0--4--|--0--0--5--0--0--5--0--0--|
    --------------------------|--------------------------|
    --------------------------|--------------------------|
    --------------------------|--------------------------|
    --------------------------|--------------------------|
    --------------------------|--------------------------|
    
    --12--12--12--12--12--10--10--9---|----------9----------10----------|
    --10--10--10--10--10--10--10--10--|--10---------10--10------10--10--|
    --11--11--11--11--11--11--11------|------11-------------------------|
    ------------------------------12--|---------------------------------|
    ----------------------------------|---------------------------------|
    ----------------------------------|---------------------------------|
    
    --7--------9--------7-----|-----------------------------|
    -----9--9-----9--9-----9--|--10-----10--------10--------|
    --------------------------|------9------9--9------9--9--|
    --------------------------|-----------------------------|
    --------------------------|-----------------------------|
    --------------------------|-----------------------------|
    
    --------------------------------|----------------------------|
    --10--10--10--10--10--10--9--9--|--10--------9--------10-----|
    ------9---9---9---9---9---9--9--|------9--9-----9--9------9--|
    ------9---9---9---9---9---9--9--|----------------------------|
    ------7---7-------7---7------7--|----------------------------|
    --------------------------------|----------------------------|
    
    ---------------------------|---------------------------|
    --9--------10--------9-----|--------10--------9--------|
    -----9--9------9--9-----9--|--9--9------9--9-----9--9--|
    ---------------------------|---------------------------|
    ---------------------------|---------------------------|
    ---------------------------|---------------------------|
    
    ----------10----9---10----10--|----------9----------10----------|
    --10------10----10--------10--|--10-----------------------------|
    ------11--11----11--------11--|--11--11-----11--11------11--11--|
    ------------------------------|---------------------------------|
    ------------------------------|---------------------------------|
    ------------------------------|---------------------------------|
    
    ---------9--------7--5--4--|--5-----5--------4--------|
    --9------------------7--5--|-----5-----5--5-----5--5--|
    --11--9-----9--9-----------|--------------------------|
    ---------------------------|--------------------------|
    ---------------------------|--------------------------|
    ---------------------------|--------------------------|
    
    --12--12--12--12--12--10--9--10--|----------------------------|
    --10--10--10--10--10--10--9--10--|--------9---------9---------|
    --------------------------9--11--|--------9---------9-----9---|
    --12--12--12--12--12--12-----12--|--------11--------11----11--|
    ---------------------------------|----------------------------|
    ---------------------------------|--9--9------9--9------------|
    
    ------------------------------|-------------------------|
    --9---------------------------|--------7--------7-------|
    --9-----11--11----11--11--11--|--------7--------7-------|
    --11----12--12----12--12--12--|--------7--------7-------|
    --11----12--12----12--12--12--|-------------------------|
    --------10--10----10--10--10--|--7--7-----7--7-------7--|
    
    ------------------------|--------0--------0--------|---------------------------|
    --7----7--7----7--7--7--|--------2--------2--------|---------------------3--3--|
    --7----7--7----7--7--7--|--------1--------1--------|-------2--2------2---2--2--|
    --7----7--7----7--7--7--|--------------------------|--0-------7------3---7--2--|
    --5----5--5----5-----5--|--4--4-----4--4-----4--4--|----------12-----7---------|
    ------------------9-----|--------------------------|-----------------10--------|
    
    -------------------------|----------0----------0--|----0--5--0--0--5--0-----|
    --------0--------0-------|---------------3--2--2--|----2--5--2--2--5--2---0-|
    --------7--------7-------|-----2----2----2--2--2--|----2--6--2--2--6--2---0-|
    --------7--------7-------|--7--0----0----0--0-----|-------7--------7--------|
    --2--2-----------7-------|--5---------------------|-----------------------2-|
    --------8--7--7-------7--|------------------------|-------------------------|
    
    -------------------------|-----------------------4--|----0--0----4--4--4--4--|
    ----0--0-----0--0--0-----|--------------3-----3-----|----5--0----5--5--5--5--|
    ----0--4-----0--5--4--6--|---6--6-6-----1--6--6--0--|------------6--6--6--6--|
    ----------------------4--|---4--4-------4--4-----6--|-------6----6--6--6--6--|
    ----2--------2--------7--|---7-------------7--4-----|----6-------------------|
    -------3--------7--3-----|-----------------------7--|----7--7----------------|
    
    --10---5--5--9--5--5--10------|---9---------10----------9------|
    --------------------------10--|-----10--10------10--10-----10--|
    ------------------------------|--------------------------------|
    ------------------------------|--------------------------------|
    ------------------------------|--------------------------------|
    ------------------------------|--------------------------------|
    
    --10----------9----------10-----|--12----12--12--12--12------0---|
    ------10--10-----10--10-----10--|--12----12--12--12--12--12------|
    --------------------------------|--13----13--13--13--13--13------|
    --------------------------------|--14----14--14--14--14--14--11--|
    --------------------------------|------------------------14--12--|
    --------------------------------|--------------------------------|
    
    ----0---0---0---0---0---0------|----0--0----0--0--0--2--|
    --------10----------10-------0-|----0--0----0--0--0--2--|
    -----------------------------0-|------------------------|
    ----11--11--11--11--11--11-----|----2--2----2--2--2--4--|
    ----12--12--12--12--12--12-----|------------------------|
    -----------------------------7-|------------------------|
    
    ----2--2----2--2--2--4--|----0--0----4--4--4--4--|
    ----2--2----2--2--2-----|----5--0----5--5--5--5--|
    ---------------------0--|------------6--6--6--6--|
    ----4--4----4--4--4--6--|-------6----6--6--6--6--|
    ------------------------|----6-------------------|
    ---------------------7--|----7--7----------------|
    
    --10---5--5--9--5--5--10------|---9---------10----------9------|
    --------------------------10--|-----10--10------10--10-----10--|
    ------------------------------|--------------------------------|
    ------------------------------|--------------------------------|
    ------------------------------|--------------------------------|
    ------------------------------|--------------------------------|
    
    --10----------9----------10-----|--12----12--12--12--12--0---0---|
    ------10--10-----10--10-----10--|--12----12--12--12--12--15--10--|
    --------------------------------|--13----13--13--13--13--16------|
    --------------------------------|--14----14--14--14--14--18--11--|
    --------------------------------|----------------------------12--|
    --------------------------------|--------------------------------|
    
    ----0---0---0---0---0---0---0--|----0--0----0--0--0--2--|
    --------10----------10------0--|----0--0----0--0--0--2--|
    -------------------------------|------------------------|
    ----11--11--11--11--11--11-----|----2--2----2--2--2--4--|
    ----12--12--12--12--12--12--7--|------------------------|
    -------------------------------|------------------------|
    
    ----2--12--12--12--12--12------|------------------------------|
    ----2--10--10--10--10--10--9---|----9---9-----9---9---9---9---|
    -------11--11--11--11--11--9---|----9---9-----9---9---9---9---|
    ----4--11--11--11--11--11--11--|----11--11----11--11--11--11--|
    ---------------------------11--|----11--11----11--11--11--11--|
    -------------------------------|------------------------------|
    
    --10-----------9----------10------|---9---------10----------9------|
    -------10--10-----10--10------10--|-----10--10------10--10-----10--|
    ----------------------------------|--------------------------------|
    ----------------------------------|--------------------------------|
    ----------------------------------|--------------------------------|
    ----------------------------------|--------------------------------|
    
    --10----------9----------10-----|--12----12--12--12--12------12--|
    ------10--10-----10--10-----10--|--12----12--12--12--12--12------|
    --------------------------------|--13----13--13--13--13--13--9---|
    --------------------------------|--14----14--14--14--14--14--11--|
    --------------------------------|------------------------14--12--|
    --------------------------------|--------------------------------|
    
    ----12--12--12--12--12--12--0---|----0--0----0--0--0--2--|
    --------10----------10------0---|----0--0----0--0--0--2--|
    ----9---9---9---9---9---9-------|------------------------|
    ----11--11--11--11--11--11------|-------2----2--2--2--4--|
    ----12--12--12--12--12--12------|----7-------------------|
    ----------------------------12--|------------------------|
    
    ----2--2----2--2--2--4--|----4--4----4--4--4--4--|
    ----2--2----2--2--2-----|----5--5----5--5--5--5--|
    ---------------------0--|----6--6----6--6--6--6--|
    ----4--4----4--4--4--6--|----6--6----6--6--6--6--|
    ------------------------|------------------------|
    ---------------------7--|------------------------|
    
    --10---5--5--9--5--5--10------|---9---------10----------9------|
    --------------------------10--|-----10--10------10--10-----10--|
    ------------------------------|--------------------------------|
    ------------------------------|--------------------------------|
    ------------------------------|--------------------------------|
    ------------------------------|--------------------------------|
    
    --10----------9----------10------|-----------------------------|
    ------10--10-----10--10------10--|--9---10----12----10--9--0---|
    ---------------------------------|--9---9-----9-----9---9--5---|
    ---------------------------------|--9---9-----9-----9---9------|
    ---------------------------------|--11--11----11----11--11-----|
    ---------------------------------|-------------------------7---|
    
    --------------------------|--------------------------|
    --------------------------|--------------------------|
    --------------------------|--3--3--3--3--3--3--3--3--|
    --6--6--6--6--6--6--6--6--|--3--3--3--3--3--3--3--3--|
    --6--6--6--6--6--6--6--6--|--1--1--1--1--1--1--1--1--|
    --4--4--4--4--4--4--4--4--|--------------------------|
    
    --------------------------|--------------------------|
    --1--1--1--1--1--1--1--1--|--1--1--1--1--1--1--1--1--|
    --0--0--0--0--0--0--0--0--|--0--0--0--0--0--0--0--0--|
    --------------------------|--------------------------|
    --3--3--3--3--3--3--3--3--|--3--3--3--3--3--3--3--3--|
    --------------------------|--------------------------|
    
    --------------------------|--------------------------|
    --------------------------|--------------------------|
    --1--1--1--1--1--1--1--1--|--3--3--3--3--3--3--3--3--|
    --1--1--1--1--1--1--1--1--|--3--3--3--3--3--3--3--3--|
    --------------------------|--1--1--1--1--1--1--1--1--|
    --4--4--4--4--4--4--4--4--|--------------------------|
    
    --------------------------|--------------------------|
    --1--1--1--1--1--1--1--1--|--1--1--1--1--1--1--1-----|
    --0--0--0--0--0--0--0--0--|--0--0-----0--0--0--0--0--|
    --------------------------|-----------------------1--|
    --3--3--3--3--3--3--3--3--|--3--3--3--3--3--3--3--3--|
    --------------------------|--------------------------|
    
    --4--4--4--4--4--4--4--4--|--6--6--6--6--6--6--6--6--|
    --4--4--4--4--4--4--4--4--|--6--6--6--6--6--6--6--6--|
    --------------------------|--7--7--7--7--7--7--7--7--|
    --6--6--6--6--6--6--6--6--|--8--8--8--8--8--8--8--8--|
    --6--6--6--6--6--6--6--6--|--8--8--8--8--8--8--8--8--|
    --4--4--4--4--4--4--4--4--|--6--6--6--6--6--6--6--6--|
    
    --4--4--4--4--4--4--4--4--|--6--6--6--6--6--6--6--4--|----4--4--6----6--6--7--|
    --4--4--4--4--4--4--4--4--|--6--6--6--6--6--6--6--4--|----4--4-------------7--|
    --------------------------|--7--7--7--7--7--7--7--5--|----5--5--7----7--7--8--|
    --6--6--6--6--6--6--6--6--|--8--8--8--8--8--8--8--6--|----6--6--8----8--8--9--|
    --6--6--6--6--6--6--6--6--|--8--8--8--8--8--8--8--6--|----6--6--8----8--8--9--|
    --4--4--4--4--4--4--4--4--|--6--6--6--6--6--6--6--4--|----4--4--6----6--6--7--|
    
    ----7--7--9-----9---9---9---|--11--11--11--11--11--11--11--11--|
    ----7--7--9-----9---9---9---|----------------------------------|
    ----8--8--10----10--10--10--|--12--12--12--12--12--12--12--12--|
    ----9--9--11----11--11--11--|--13--13--13--13--13--13--13--13--|
    ----9--9--11----11--11--11--|--13--13--13--13--13--13--13--13--|
    ----7--7--9-----9---9---9---|--11--11--11--11--11--11--11--11--|
    
    -----------------------------11---|--------------------|------------------|
    ----------------------------------|--------------------|------------------|
    ------12-12-12-12-12-12-13--------|------12------------|------------------|
    ------13-13-13-13-13-13-13--------|------13------------|------------------|
    ----------------------------------|--------------------|------------------|
    ----------------------------------|--------------------|------------------|
    
    ------------------||
    ------------------||
    ------------------||
    ------------------||
    ------------------||
    ------------------||…
  • Intro Solo:
    
    E|----------------------------------|
    B|-------0------------0-------------|
    G|------0--0---------0--0-----------|
    D|----4-----4---4---4-----4---4-----|
    A|--7---------7---5---------5-------|
    E|----------------------------------|
    
    E|------------------------------------|
    B|-------2------------------232-------|
    G|-----2---2-----------2--------2-----|
    D|---2-------2---2---2---2--------2---|
    A|-4-----------4---0------------------|
    E|------------------------------------|
    
    E|--------2---------------2---------------|
    B|------3---3-----------3---3---------4---|
    G|----2-------2---2---2-------2---2---4---|
    D|--0-----------0---------------------4---|
    A|------------------3-----------3-----2---|
    E|----------------------------------------|
    
    toki…
  • Verse C
    
     Guitar 1
    e|----------------------|----------------------|-----------------------|-----------------------|
    B|----------------------|----------------------|-----------------------|-----------------------|
    G|--12===---------------|----------------------|-----12===----12=12=12=|---11===----11===11=11=|
    A|----------------------|----------------------|-x-x----x-x-x----------|-x----x-x-x----x-------|
    D|----------------------|----------------------|-----------------------|-----------------------|
    E|----------------------|----------------------|-----------------------|-----------------------|…
  • -----ChOrD LeGeNd-----
    F#m7 : 242222
    G#m7 : 464444
    A : X02220
    B : X24442
    E : 022100
    AM7 : X02120
    C#m : X46654
    Esus4 : 022200
    C#sus4 : X46674
    
    Please Rate it!! If some-0N3 can figure out the solo, please e-mail…
  • Intro :
    F#add9  C#
    D#madd9 B
    (drum loop)
    F#add9  C#
    (beat on)
    D#madd9 B
    
    VERSE
    F#
    kokoniaru tashika na riaritei
    Dm                    B
    furikaeru kinou nante kudaranai
    F#add9
    togireru nai sora wo dokomademo
    Dmadd9…
  • Intro: D
    
    D                Bm
    Ate naku tadayou TRAFFIC JAM
    Em                         A
    Machi wa muchitsujo sosogu ame wa ACID RAIN.
    D                 Bm
    Asu he no kuuseki mo naku
    Em                        A
    mayoeru…
  • key:
    
    ^^ = 1 step bend
    ^  = 1/2 step bend
    /  = slide
    h  = hammering
    p  = pull-off
    ~  = vibrato
    
    Guitar Tab !
    
    
    
    Riff 1:
    
       D             A7/C#           GM7/B          D/A
    e -5-------------0-----0-2-------------------------------
    B…
  • Chords:
    	[A]    x02220	[As2]  x02200	[Am]   x02210	[Am7]  x02010
    	[C]    x32010	[Em]   022000	[FM7]  xx3210	[G]    320033
    	[Gs4]  355533
    
    
    Intro:
    
    As2   As2   Am7   Am7
    C     G     Em    FM7
    C     G     Em    FM7
    
    
    Verse:
    
    C…
  • Am G F (4x)
    
    C     G          Em         Am    F          G      Am
    Woah! kasaneawaseta yume wo daite hateshinai rakuen e
    C   G            Em        Am    F       G              Am
    mou nakusu mono sae mitsukaranai kakenuketa…
  • Intro:
    G5 A5 B5 F#5
    G5 A5 C5
    
      D                      G
    Hora kaze ga ugoki dashita
      D                      G
    mada akirametari ha shinai
       Bm    G  D               A
    Taiyou wo kumo no saki ni kanjiru
         Bm…
  • Intro - G  C7M    Fsus2  C
    
    
    G     C7M     Fsus2    C7M   
    Ano zawameki mada     kikoeru?
    
    G       C7M    Fsus2       C              Am7
    Ima kono mama  kono   toki wo tometakute
    
    Am7          Bm              C…
  • Intro
    
            C#sus2       G#m             F#     B7
    Kisetsu wa iro wo kaete iku do megurou tomo
              B       Esus4    B        G#m        A
    Kono kimochi wa karenai hana no you ni yurameite
            E    C#m E…
  • A
    READY STEADY CAN'T HOLD ME BACK
    G
    READY STEADY GIVE ME GOOD LUCK
    F
    READY STEADY NEVER LOOK BACK
                                   A
    LET'S GET STARTED READY STEADY GO
    
    A F#m D E
    
    A                    F#m…
  • Intro: [F# E B] x3
    
     F#         E             B
    Ware ni tsuzuke saa ikou karadajuu no kara wo yaburi
     F#        E                B
    Sarakedasu Ai wo tsunagou dakishimeai tashikameai
     F#       E          B
    Yurameku…
  • Standard Tuning E A D G B E
    
    Intro Riff
    
    -17-17-17-----------I---------14-14-I-5-5-5-----5-5-5-5-5h7-----I------2-2--
    ---------14-14-14h15I-14-14-15------I------2-2-2h3------------2-3I-2-2-3-----
    --------------------I---------------I---------------------------I-----------
    --------------------I---------------I---------------------------I-----------
    --------------------I---------------I---------------------------I-----------
    --------------------I---------------I---------------------------I-----------
    reapeat…
  • Tuning:eBGDAE
    
    e|-/17--14-15-17---17/21-21---21\14--14--(14)/21-21-21\14/19/21\10-----------|
    B|-----------------------------------------------------------------15-14-17--|
    G|---------------------------------------------------------------------------|
    D|---------------------------------------------------------------------------|
    A|---------------------------------------------------------------------------|
    E|---------------------------------------------------------------------------|
    
    e|-------------17-17-15-14---------------------------------------------------|
    B|-17/19--19---------------14------------------------------------------------|
    G|---------------------------------------------------------------------------|
    D|---------------------------------------------------------------------------|
    A|---------------------------------------------------------------------------|
    E|---------------------------------------------------------------------------|…
  • Intro:
    
        A   E    F#m E    D        F#m      E        
    
    
    Verse A:
    
     A        E          Em          F#s4
       Nakanaide, nakanaide taisetsu na hitomi yo
     Bm          Bb         D        E7     Em   F#
       Kanashisa…
  • Intro : E C E C
    
    E               C                    
    Akogare wa haruka shinkirou no kanata
    E               C
    Hibiwareta mune ga kogarete itai yo
    C#m    G#m         A                 E
    Yurikago no you ni dakishimerareta…
  • INTRO
    e |----0-----------0---------------|
    B |-------4-----------4--------4---|    repeat until 00:16(masuk verse)
    G |-4----------4----------4--------|     and do it on outro
     
       E5 D#5-E5-D#5 A5 G#5 (3x) E5
       A…
  • Intro
    
     Guitarra 1
    e|----10------8------7h8---7h8---------|----10------8------7h8---12------12----|
    B|-------0------0--------0-----0----0--|-------0------0--------0----0-------0--|
    G|---------10-----10-------------10----|---------10-----10------------10-------|
    D|-------------------------------------|---------------------------------------|
    A|-------------------------------------|---------------------------------------|
    E|--0----------------------------------|--0------------------------------------|…
  • E||------------------|--------2-----------1-----|--------1-----------4--2--|
    B||------------------|-----4-----4-----2-----2--|-----2-----2-----4--------|
    G||------------------|--4-----------4-----------|--3-----------3-----------|
    D||------------------|--------------------------|--------------------------|
    A||------------------|--------------------------|--------------------------|
    E||------------------|--------------------------|--------------------------|…
  • intro
    G C9 G AM C
    
    
    1ST STANZA
      G             D       Bm       Em     D 
     Sou kizuite ita gogo no hikari ni mada...
       C         D       
      Boku wa nemutteru
          G             D       Bm       Em     D…
  • Intro: G G C G/B Am7 Am7/D G
    
         D     Em      Bm           C      G
    nemure nakute mado no tsuki o miageta...
    
        C         D7   G
    omoeba ano hi kara
    
         D      Em      Bm       C       G    C       D7    G
    sora…
  • Intro
    
         A                             F#m
    E||-----------------------------|-----------------------------|
    B||------2--0-2--3--2--0--2-2-2-|------2--0-2--3--2--0--2-2-2-|
    G||------2--2-2--2--2--2--2-2-2-|------2--2-2--2--2--2--2-2-2-|
    D||--2-2-2--2-2--2--2--2--2-2-2-|------4--4-4--4--4--4--4-4-4-|
    A||--0-0------------------------|-----------------------------|
    E||--0-0------------------------|--2-2------------------------|…
  • Intro: C#m A E  C#m A E
           C#m A E  C#m A B(Hold)
    
    
    Tab Plucking: Standard tuning E A D G B E
    --0-------0---0--I--0---------
    -2-0-0-2-0-0-4-4-I-2-0-0-2-4--
    -1--2---1--------I-1--2----4--
    -----------------I------------
    -----------------I------------
    -----------------I------------
    *…
  • W                   W                   W                 
    G||-------------------|-------------------|-------------------|
    D||-------------------|-------------------|-------------------|
    A||-------------------|-------------------|-------------------|
    E||-------------------|-------------------|-------------------|…
  • Intro: D A G Em Bm G (2X)
    
      B       F#    A    D
    mezameta nowa yumeno ato
         B        F#         A       D
    yatsumori darakeno kimitehe youkoso
      B          F#        A        D
    jirijirito yakitsukusu tenwo aogi
     B…
  • Chords:
    	[A]    x02220	[B7]   x24242	[Bm]   x24432	[Bm7]  x24232
    	[D]    xx0232	[Ds2]  xx0230	[Ds4]  xx0233	[F#]   244322
    	[F#m]  244222	[F#m7] 242222	[GM7]  320003	[G#m7] 464444
    
    
    Intro:
    
              |GM7  |A…
  • Tempo     :  86 bpm
    
    Tuning     :  AEBDG
    
    ============
    
    Intro:
    
    ============
    
    A__A/G__FM7__Gsus4_G ...............2X
    
    ============
    
    Verse#1:
    
    ============
    
    A_______A/G_____FM7____Gsus4_G___A
    
    ___Yurameku…
  • E||--8----------------|--10------13----------8--|------------------|
    B||--8----------------|--9-------------12----8--|------------------|
    G||--9----------------|--10------------------9--|------------------|
    D||-------------------|-------------------------|------------------|
    A||-------------------|-------------------------|------------------|
    E||-------------------|-------------------------|------------------|
    
    ------15--13--15--16----13--|--15--15--13--13--12--12--13/-15--|
    ------13----------------13--|----------------------------------|
    ----------------------------|----------------------------------|
    ----------------------------|----------------------------------|
    ----------------------------|----------------------------------|
    ----------------------------|----------------------------------|
    
    --15/-16----18----16----15/16-|--15----------------|--1----1--1----1--1--1--|
    ------------------------------|--------------------|--3----3--3----3--3--3--|
    ------------------------------|--------------------|--1----1--1----1--1--1--|
    ------------------------------|--------------------|--3----3--3----3--3--3--|
    ------------------------------|--------------------|------------------------|
    ------------------------------|--------------------|------------------------|
    
    --0----0--0----0--0--0--|--1----1--1----1--1--1--|--0----0--0----0--0--0--|
    --1----1--1----1--1--1--|--3----3--3----3--3--3--|--1----1--1----1--1--1--|
    --0----0--0----0--0--0--|--1----1--1----1--1--1--|--0----0--0----0--0--0--|
    --2----2--2----2--2--2--|--3----3--3----3--3--3--|--2----2--2----2--2--2--|
    --3----3--3----3--3--3--|------------------------|--3----3--3----3--3--3--|
    ------------------------|------------------------|------------------------|
    
    --1----1--1----1--1--1--|--0----0--0----0--0--0--|--2----2--2----2--2--2--|
    --3----3--3----3--3--3--|--1----1--1----1--1--1--|--3----3--3----3--3--3--|
    --1----1--1----1--1--1--|--2----2--2----2--2--2--|--2----2--2----2--2--2--|
    --3----3--3----3--3--3--|--2----2--2----2--2--2--|--0----0--0----0--0--0--|
    ------------------------|--0----0--0----0--0--0--|------------------------|
    ------------------------|------------------------|------------------------|
    
    --1----1--1----1--1--3--|----3--3--3--3--------|--0----0--0----0--0--0--|
    --1----1--1----1--1--0--|----0--0--0--0--------|--1----1--1----1--1--1--|
    --2----2--2----2--2--0--|----0--0--0--0--------|--0----0--0----0--0--0--|
    --3----3--3----3--3--0--|----0--0--0--0--------|--2----2--2----2--2--2--|
    --3----3--3----3--3--2--|----2--2--2--2--------|--3----3--3----3--3--3--|
    --1----1--1----1--1--3--|----3--3--3--3--------|------------------------|
    
    --1----1--1----1--1--1--|--0----0--0----0--0--0--|--1----1--1----1--1--1--|
    --3----3--3----3--3--3--|--1----1--1----1--1--1--|--3----3--3----3--3--3--|
    --1----1--1----1--1--1--|--0----0--0----0--0--0--|--1----1--1----1--1--1--|
    --3----3--3----3--3--3--|--2----2--2----2--2--2--|--3----3--3----3--3--3--|
    ------------------------|--3----3--3----3--3--3--|------------------------|
    ------------------------|------------------------|------------------------|
    
    --0----0--0----0--0--0--|--2----2--2----2--2--2--|--1----1--1----1-----4--|
    --1----1--1----1--1--1--|--3----3--3----3--3--3--|--1----1--1----1-----4--|
    --2----2--2----2--2--2--|--2----2--2----2--2--2--|--2----2--2----2-----5--|
    --2----2--2----2--2--2--|--0----0--0----0--0--0--|--3----3--3----3--x--6--|
    --0----0--0----0--0--0--|------------------------|--3----3--3----3--x--6--|
    ------------------------|------------------------|--1----1--1----1--x--4--|
    
    ----4----1----1--1----|-----------3--------------|--------7-----------------|
    ----4----3----3--3----|-----5--------5-----5-----|--9--------9-----9-----9--|
    ----5----3----3--3----|--5-----5--------5-----5--|-----9--------9-----9-----|
    ----6----3----3--3----|--------------------------|--------------------------|
    ----6----1----1--1----|--------------------------|--------------------------|
    ----4-----------------|--------------------------|--------------------------|
    
    --------------8------------------|--11----------10----------10------|
    ------10---------10------10--13--|------13----------12--------------|
    --10------10---------10------13--|----------13----------12----------|
    ---------------------------------|------------------------------12/-|
    ---------------------------------|----------------------------------|
    ---------------------------------|----------------------------------|
    
    -----------3--------------|-----------7---------------|
    -----5--------5-----5-----|-----9--------9-----9------|
    --5-----5--------5-----5/-|--9-----9--------9-----10--|
    --------------------------|---------------------------|
    --------------------------|---------------------------|
    --------------------------|---------------------------|
    
    ----------8----------8------11--|----------11------10----------10--|
    --10---------10-----------------|--13------------------12----------|
    ------10---------10-----10------|------13------13----------12------|
    --------------------------------|----------------------------------|
    --------------------------------|----------------------------------|
    --------------------------------|----------------------------------|
    
    --15--15--13--13--12--12--13/-15--|--15/-16----18----16----15/16-|
    ----------------------------------|------------------------------|
    ----------------------------------|------------------------------|
    ----------------------------------|------------------------------|
    ----------------------------------|------------------------------|
    ----------------------------------|------------------------------|
    
    --15--15--13--13--12--12--13/-15--|--15/-16/---18----16/-------|
    ----------------------------------|------------------------12--|
    ----------------------------------|----------------------------|
    ----------------------------------|----------------------------|
    ----------------------------------|----------------------------|
    ----------------------------------|----------------------------|
    
    --------------------|------------------|--0----0--0----0--0--0--|
    --13----------------|------------------|--1----1--1----1--1--1--|
    --------------------|------------------|--0----0--0----0--0--0--|
    --------------------|------------------|--2----2--2----2--2--2--|
    --------------------|------------------|--3----3--3----3--3--3--|
    --------------------|------------------|------------------------|
    
    --1----1--1----1--1--1--|--0----0--0----0--0--0--|--2----2--2----2--2--2--|
    --3----3--3----3--3--3--|--1----1--1----1--1--1--|--3----3--3----3--3--3--|
    --1----1--1----1--1--1--|--2----2--2----2--2--2--|--2----2--2----2--2--2--|
    --3----3--3----3--3--3--|--2----2--2----2--2--2--|--0----0--0----0--0--0--|
    ------------------------|--0----0--0----0--0--0--|------------------------|
    ------------------------|------------------------|------------------------|
    
    --1----1--1----1--1--3--|----3--3--3--3--------|--0----0--0----0--0--0--|
    --1----1--1----1--1--0--|----0--0--0--0--------|--1----1--1----1--1--1--|
    --2----2--2----2--2--0--|----0--0--0--0--------|--0----0--0----0--0--0--|
    --3----3--3----3--3--0--|----0--0--0--0--------|--2----2--2----2--2--2--|
    --3----3--3----3--3--2--|----2--2--2--2--------|--3----3--3----3--3--3--|
    --1----1--1----1--1--3--|----3--3--3--3--------|------------------------|
    
    --1----1--1----1--1--1--|--0----0--0----0--0--0--|--1----1--1----1--1--1--|
    --3----3--3----3--3--3--|--1----1--1----1--1--1--|--3----3--3----3--3--3--|
    --1----1--1----1--1--1--|--0----0--0----0--0--0--|--1----1--1----1--1--1--|
    --3----3--3----3--3--3--|--2----2--2----2--2--2--|--3----3--3----3--3--3--|
    ------------------------|--3----3--3----3--3--3--|------------------------|
    ------------------------|------------------------|------------------------|
    
    --0----0--0----0--0--0--|--2----2--2----2--2--2--|--1----1--1----1-----4--|
    --1----1--1----1--1--1--|--3----3--3----3--3--3--|--1----1--1----1-----4--|
    --2----2--2----2--2--2--|--2----2--2----2--2--2--|--2----2--2----2-----5--|
    --2----2--2----2--2--2--|--0----0--0----0--0--0--|--3----3--3----3--x--6--|
    --0----0--0----0--0--0--|------------------------|--3----3--3----3--x--6--|
    ------------------------|------------------------|--1----1--1----1--x--4--|
    
    ----4----1----1--1----|-----------3--------------|--------7-----------------|
    ----4----3----3--3----|-----5--------5-----5-----|--9--------9-----9-----9--|
    ----5----3----3--3----|--5-----5--------5-----5--|-----9--------9-----9-----|
    ----6----3----3--3----|--------------------------|--------------------------|
    ----6----1----1--1----|--------------------------|--------------------------|
    ----4-----------------|--------------------------|--------------------------|
    
    --------------8------------------|--11----------10----------10------|
    ------10---------10------10--13--|------13----------12--------------|
    --10------10---------10------13--|----------13----------12------12/-|
    ---------------------------------|----------------------------------|
    ---------------------------------|----------------------------------|
    ---------------------------------|----------------------------------|
    
    --5--------3--------------|-----------7--------------|
    --5--5--------5-----5-----|-----9--------9-----9-----|
    --5-----5--------5-----5/-|--9-----9--------9-----9--|
    --------------------------|--------------------------|
    --------------------------|--------------------------|
    --------------------------|--------------------------|
    
    --------------8------------------|--11----------10----------10/---|
    ------10---------10------10--13--|------13----------12------12/---|
    --10------10---------10------13--|----------13----------12--12/---|
    ---------------------------------|--------------------------------|
    ---------------------------------|--------------------------------|
    ---------------------------------|--------------------------------|
    
    --------------------------|--------------------------|
    --------------------------|--------------------------|
    --------------------------|--------------------------|
    --------------------------|--------------------------|
    --5--5--5--5--5--5--5--5--|--4--4--4--4--4--4--4--4--|
    --------------------------|--------------------------|
    
    --------------------------|--------------------------|
    --------------------------|--------------------------|
    --------------------------|--------------------------|
    --------------------------|--------------------------|
    --3--3--3--3--3--3--3--3--|--1--1--1--1--1--1--1--1--|
    --------------------------|--------------------------|
    
    --------------------------|--------------------------|
    --------------------------|--------------------------|
    --------------------------|--------------------------|
    --------------------------|--------------------------|
    --5--5--5--5--5--5--5--5--|--4--4--4--4--4--4--4--4--|
    --------------------------|--------------------------|
    
    --------------------------|--------------------------|-------------------|
    --------------------------|--------------------------|-------------------|
    --------------------------|--------------------------|----------------7/-|
    --------------------------|--------------------------|-------------------|
    --3--3--3--3--3--3--3--3--|--------------------------|-------------------|
    --------------------------|--3--3--3--3--3--3--3--3--|-------------------|
    
    -----------------------|--------------------------|
    -----------------------|----------------10----12--|
    --12----------9----10/-|--12------12--------------|
    -----------------------|--------------------------|
    -----------------------|--------------------------|
    -----------------------|--------------------------|
    
    ---------------------------------------|--------------------------|
    --10-12-10-12-10-12-10-----------------|--------------------------|
    ------------------------12----12----9--|--9--10----10----9----10--|
    ---------------------------------------|--------------------------|
    ---------------------------------------|--------------------------|
    ---------------------------------------|--------------------------|
    
    ---------8---------8--8------|----------------------------13--|
    -------------------------12--|--13--13--15--13----12--13------|
    --9--10-----9--10------------|--------------------------------|
    -----------------------------|--------------------------------|
    -----------------------------|--------------------------------|
    -----------------------------|--------------------------------|
    
    --13h-12--12/---------------------|-------------------------------|
    --------------15--15/-13--13--12--|--12---------------------------|
    ----------------------------------|------12--12/-10--10--9--------|
    ----------------------------------|---------------------------10--|
    ----------------------------------|-------------------------------|
    ----------------------------------|-------------------------------|
    
    -------------------------|----------------------------|
    -------------------------|------------18----17----15--|
    ----------12----10----9--|--10/-12/-------------------|
    --10---------------------|----------------------------|
    -------------------------|----------------------------|
    -------------------------|----------------------------|
    
    ------------------------13--|--13/-12--12/-10--10/-8--8-----|
    --15/-13----12----13--------|----------------------------8--|
    ----------------------------|-------------------------------|
    ----------------------------|-------------------------------|
    ----------------------------|-------------------------------|
    ----------------------------|-------------------------------|
    
    --------------------15--------|----------------15----15--|
    ------------12--13--------14--|----12----13/-------------|
    --14----14--------------------|--------------------------|
    ------------------------------|--------------------------|
    ------------------------------|--------------------------|
    ------------------------------|--------------------------|
    
    --17----------17------------16--|------------18--------------|
    ------15------------15----------|----15--14--------18--------|
    ----------17------------17/-----|----------------------19/---|
    --------------------------------|----------------------------|
    --------------------------------|----------------------------|
    --------------------------------|----------------------------|
    
    -----------3--------------|--------7-----------------|
    -----5--------5-----5-----|--9--------9-----9-----9--|
    --5-----5--------5-----5--|-----9--------9-----9-----|
    --------------------------|--------------------------|
    --------------------------|--------------------------|
    --------------------------|--------------------------|
    
    --------------8----------8--11--|----------11--------------10------|
    ------10---------10---------13--|--13--------------12--------------|
    --10------10---------10-----13--|------13------12------12------12/-|
    --------------------------------|----------------------------------|
    --------------------------------|----------------------------------|
    --------------------------------|----------------------------------|
    
    -----------3--------------|--------7-----------------|
    -----5--------5-----5-----|--9--------9-----9-----9--|
    --5-----5--------5-----5--|-----9--------9-----9-----|
    --------------------------|--------------------------|
    --------------------------|--------------------------|
    --------------------------|--------------------------|
    
    --------------8----------8--11--|--11----------10--10------------|
    ------10---------10---------13--|------13------12------12--------|
    --10------10---------10-----13--|----------13--------------12/---|
    --------------------------------|--------------------------------|
    --------------------------------|--------------------------------|
    --------------------------------|--------------------------------|
    
    -----------3--------------|-----------7--------------|
    -----5--------5-----5-----|--9-----9-----9-----9-----|
    --5-----5--------5-----5--|-----9-----------9-----9--|
    --------------------------|--------------------------|
    --------------------------|--------------------------|
    --------------------------|--------------------------|
    
    --------------8--------------11--|--11--------------10--------------|
    ------10---------10------10--13--|------13------12------12------12/-|
    --10------10---------10--10--13--|----------13--12----------12------|
    ---------------------------------|----------------------------------|
    ---------------------------------|----------------------------------|
    ---------------------------------|----------------------------------|
    
    -----------3--------------|--------7-----------------|
    -----5--------5-----5-----|--9--------9-----9-----9--|
    --5-----5--------5-----5--|-----9--------9-----9-----|
    --------------------------|--------------------------|
    --------------------------|--------------------------|
    --------------------------|--------------------------|
    
    --------------8----------8--11--|--11--------------10----------10--|
    ------10---------10---------13--|------13------12------12----------|
    --10------10---------10-----13--|----------13--12----------12------|
    --------------------------------|----------------------------------|
    --------------------------------|----------------------------------|
    --------------------------------|----------------------------------|
    
    --0----0--0----0--0--0--|--1----1--1----1--1--1--|--0----0--0----0--0--0--|
    --1----1--1----1--1--1--|--3----3--3----3--3--3--|--1----1--1----1--1--1--|
    --0----0--0----0--0--0--|--1----1--1----1--1--1--|--0----0--0----0--0--0--|
    --2----2--2----2--2--2--|--3----3--3----3--3--3--|--2----2--2----2--2--2--|
    --3----3--3----3--3--3--|------------------------|--3----3--3----3--3--3--|
    ------------------------|------------------------|------------------------|
    
    --1----1--1----1--1--1--|--0----0--0----0--0--0--|--1----1--1----1--1--1--|
    --3----3--3----3--3--3--|--1----1--1----1--1--1--|--3----3--3----3--3--3--|
    --1----1--1----1--1--1--|--0----0--0----0--0--0--|--1----1--1----1--1--1--|
    --3----3--3----3--3--3--|--2----2--2----2--2--2--|--3----3--3----3--3--3--|
    ------------------------|--3----3--3----3--3--3--|------------------------|
    ------------------------|------------------------|------------------------|
    
    --0----0--0----0--0--0--|--1----1--1----1--1--1--|--0----------------||
    --1----1--1----1--1--1--|--3----3--3----3--3--3--|--1----------------||
    --0----0--0----0--0--0--|--1----1--1----1--1--1--|--0----------------||
    --2----2--2----2--2--2--|--3----3--3----3--3--3--|--2----------------||
    --3----3--3----3--3--3--|------------------------|--3----------------||
    ------------------------|------------------------|-------------------||…
  • ---CHORD LEGEND---
    Em : 022000
    G6 : 320000
    C : x32010
    A : x02220
    D : xx0232
    B : x24442
     
    Intro: Em G6 C A (6x)
    
    Verse :
    
    Em      G6          C      A
    And so I play my guitar
    Em      G6          C      A
    I…
  • D            A
    Oboete iru kai?
                  Bm                    G -------------> A           D
    Osanai koro kara tsumasaki tachi de todoka nai tobira ga atta yo ne
                    A                Bm
    Jikan wo wasurete…
  • Intro : G D F Em C G Am D 
    
    G                 Em         C     D
    Kazoekirenai... demo sukoshi no saigetsu wa nagare
    G                  Em          C           D                 
    Ittai kimi no koto wo dore kurai wakatteru…
  • E
    I wake from a nightmare now
           C
    In the day it haunts me
    D                  E
    It slowly tears me apart
    
    With dreams of a distant love
          C		        D
    I'm a wandering satelite
    
    E
    Somewhere in the wasteland…
  • r = let ring
    / = slide
    h = apply hammer
    p = pull off
    
    
    Backing Guitar:
    Intro only:
    
    e|--------------------------------------0-----------------1-----------------0--------------|
    B|--1-----------------3--------------------------------------------------------------------|
    G|--2-----------------2-----------------2-----------------2-----------------2--------------|
    D|-----------------------------------------------------------------------------------------|
    A|-----------------------------------------------------------------------------------------|
    E|--0--0-0-0-0-0-0-0--0--0-0-0-0-0-0-0--0--0-0-0-0-0-0-0--0--0-0-0-0-0-0-0--0--0-0-0-0-0-0-|
    
    e|-----------------------------------------------------------|
    B|-----------------------------------------------------------|
    G|-----2-----------------2-----------------1-----------------|
    D|-----------------------2-----------------2-----------------|
    A|-----------------------------------------------------------|
    E|--0--0--0-0-0-0-0-0-0--0--0-0-0-0-0-0-0--0--0-0-0-0-0-0-0--|
    
    
    Lead…
  • intro : Em (play 4 bars)
    
    Em      A          F#m      Bm
    ANDOROIDO no nemuri o samatagenaide
    Em   A        Bm
    A..i o mite mitakute
    Em     A         F#m       Bm
    Ikusen no hoshifuru yozora no moto de
    Em  A…
  • Intro 
    
     Guitar 1
    e|-----------------------|-----------------------------|--------------------------|
    B|-----------------------|-----------------------------|--------------------------|
    G|-----------------------|-----------------------------|--------------------------|
    A|-----------------------|-----------------------------|--------------------------|
    D|-----------------------|-----------------------------|--------------------------|
    E|-----------------------|-----------------------------|--------------------------|…
  • Chord for this song always play with quickly especially on intro and reff
    
    Intro : F#  A  D  F (4x) F#
    
                                             D   F    F#
    tokei no hari wa sude ni 3(san)shuume ni totsunyuu…
  • ~CHORD LEGEND~
    Am : x02210
    F : 133211
    C : x32010
    G : 320003
    Em : 022000
    
    
    Intro: Am  F  C  G
             Am  F  C
    
    Verse 1:
           Am          F                C           G
    Donna ni- tooku de- nagai- michi mo…
  • A    G#m C#m  F#m   E
    Kimi e to yume wa ima
     
    
    A                D     E              A
    Tooi chiheisen e mukai yasashii ude kara
    A               D
    Zutto kaketekitandane
    E                 A
    Saisho wa chiisai hohaba…
  • INTRO:
    Guitar : Em C D Dadd9 G C (x3)
    
    
    VERSE
    Em____C_______D________Dadd9____G_______C___
    nee konna katachi no deai shika nakatta no? kanashii ne
    Em___C_______D______Dadd9_______G_____C_
    anata ni shindemo ayamete…
  • A                 D
      Are you feeling fine?
          B           G       A            F#m        
    Nemurenai yoru ni wa kimi no maboroshi ga...
        Bm                G             A         D
    She said, "Loving you made…
Наверх